» » »

Headstones - Tweeter And The Monkey Man Bass

Artists:  A B C D E F G H I J K L M N O P Q R S T U V W X Y Z # 

Tweeter And The Monkey Man Bass

(ver. 3) Click to play this song!
Headstones
 Rating:
4.4/5 (11 votes)

 Tweeter And The Monkey Man lessons Tabs too difficult? Try these video lessons and learn fast
 
                Verse (Play the first two lightly)

G|----------------------------------------------------------------|
D|----------------------------------------------------------------|
A|7-7-7-7-7-7-7-7-5-5-5-5-5-5-5-5-0-0-0-0-0-0-0-0-7-7-7-7-7-7-7-7-|
E|----------------------------------------------------------------|

G|----------------------------------------------------------------|
D|----------------------------------------------------------------|
A|7-7-7-7-7-7-7-7-5-5-5-5-5-5-5-5-0-0-0-0-0-0-0-0-7-7-7-7-7-0-5-7-|
E|----------------------------------------------------------------|

G|----------------------------------------------------------------|
D|----------------------------------------------------------------|
A|7-7-7-7-7-7-7-7-5-5-5-5-5-5-5-5-0-0-0-0-0-0-0-0-7-7-7-7-7-7-7-7-|
E|----------------------------------------------------------------|

G|----------------------------------------------------------------|
D|----------------------------------------------------------------|
A|7-7-7-7-7-7-7-7-5-5-5-5-5-5-5-5-0-0-0-0-0-0-0-0-7-7-7-7-7-7-7-7-|
E|----------------------------------------------------------------|

Chorus

G|----------------------------------------------------------------------------------------|
D|-----------------------------------------0~--0~-----------------------------------------|
A|7~--7--7-7-7-7~--7~---------5~--5--5-5-5-5-5-5--5-5-5-5---------------------------------|
E|-------------0-0-0--0-0-0-0-----------------------------5-5-5-5-5-5-5-5-3-3-3-3-3-3-3-3-|

Pre-Verse

  p.m.............................................................
G|----------------------------------------------------------------|
D|----------------------------------------------------------------|
A|7-7-7-7-7-7-7-7-7-7-7-7-7-7-7-7-7-7-7-7-7-7-7-7-7-7-7-7-7-7-7-7-|
E|----------------------------------------------------------------|

Verse 2 

  p.m.............................................................
G|----------------------------------------------------------------|
D|----------------------------------------------------------------|
A|7-7-7-7-7-7-7-7-5-5-5-5-5-5-5-5-0-0-0-0-0-0-0-0-7-7-7-7-7-7-7-7-|
E|----------------------------------------------------------------|

  p.m......................................................
G|----------------------------------------------------------------|
D|----------------------------------------------------------------|
A|7-7-7-7-7-7-7-7-5-5-5-5-5-5-5-5-0-0-0-0-0-0-0-0-7-7-7-7-7-0-5-7-|
E|----------------------------------------------------------------|

G|----------------------------------------------------------------|
D|----------------------------------------------------------------|
A|7-7-7-7-7-7-7-7-5-5-5-5-5-5-5-5-0-0-0-0-0-0-0-0-7-7-7-7-7-7-7-7-|
E|----------------------------------------------------------------|

G|----------------------------------------------------------------|
D|----------------------------------------------------------------|
A|7-7-7-7-7-7-7-7-5-5-5-5-5-5-5-5-0-0-0-0-0-0-0-0-7-7-7-7-7-7-7-7-|
E|----------------------------------------------------------------|

Chorus

G|----------------------------------------------------------------------------------------|
D|-----------------------------------------0~--0~-----------------------------------------|
A|7~--7--7-7-7-7~--7~---------5~--5--5-5-5-5-5-5--5-5-5-5---------------------------------|
E|-------------0-0-0--0-0-0-0-----------------------------5-5-5-5-5-5-5-5-3-3-3-3-3-3-3-3-|

Pre-Verse
   
               p.m.............................................
G|-------------------------------------------------------------|
D|----7~-------------------------------------------------------|
A|5-7---7-5-7~-7-7-7-7-7-7-7-7-7-7-7-7-7-7-7-7-7-7-7-7-7-7-7-7-|
E|-------------------------------------------------------------|

Verse

  p.m.............................................................
G|----------------------------------------------------------------|
D|----------------------------------------------------------------|
A|7-7-7-7-7-7-7-7-5-5-5-5-5-5-5-5-0-0-0-0-0-0-0-0-7-7-7-7-7-7-7-7-|
E|----------------------------------------------------------------|

  p.m......................................................
G|----------------------------------------------------------------|
D|----------------------------------------------------------------|
A|7-7-7-7-7-7-7-7-5-5-5-5-5-5-5-5-0-0-0-0-0-0-0-0-7-7-7-7-7-0-5-7-|
E|----------------------------------------------------------------|

G|----------------------------------------------------------------|
D|----------------------------------------------------------------|
A|7-7-7-7-7-7-7-7-5-5-5-5-5-5-5-5-0-0-0-0-0-0-0-0-7-7-7-7-7-7-7-7-|
E|----------------------------------------------------------------|

G|----------------------------------------------------------------|
D|----------------------------------------------------------------|
A|7-7-7-7-7-7-7-7-5-5-5-5-5-5-5-5-0-0-0-0-0-0-0-0-7-7-7-7-7-7-7-7-|
E|----------------------------------------------------------------|

Chorus

G|----------------------------------------------------------------------------------------|
D|-----------------------------------------0~--0~-----------------------------------------|
A|7~--7--7-7-7-7~--7~---------5~--5--5-5-5-5-5-5--5-5-5-5---------------------------------|
E|-------------0-0-0--0-0-0-0-----------------------------5-5-5-5-5-5-5-5-3-3-3-3-3-3-3-3-|

Solo x4

G|---------------------|
D|----7~---------------|
A|5-7---7-5-7~---------|
E|-------------5-5~-3~-|

Pre-Verse

  p.m.............................................................
G|----------------------------------------------------------------|
D|----------------------------------------------------------------|
A|7-7-7-7-7-7-7-7-7-7-7-7-7-7-7-7-7-7-7-7-7-7-7-7-7-7-7-7-7-7-7-7-|
E|----------------------------------------------------------------|

Verse

  p.m.............................................................
G|----------------------------------------------------------------|
D|----------------------------------------------------------------|
A|7-7-7-7-7-7-7-7-5-5-5-5-5-5-5-5-0-0-0-0-0-0-0-0-7-7-7-7-7-7-7-7-|
E|----------------------------------------------------------------|

  p.m......................................................
G|----------------------------------------------------------------|
D|----------------------------------------------------------------|
A|7-7-7-7-7-7-7-7-5-5-5-5-5-5-5-5-0-0-0-0-0-0-0-0-7-7-7-7-7-0-5-7-|
E|----------------------------------------------------------------|

G|----------------------------------------------------------------|
D|----------------------------------------------------------------|
A|7-7-7-7-7-7-7-7-5-5-5-5-5-5-5-5-0-0-0-0-0-0-0-0-7-7-7-7-7-7-7-7-|
E|----------------------------------------------------------------|

G|----------------------------------------------------------------|
D|----------------------------------------------------------------|
A|7-7-7-7-7-7-7-7-5-5-5-5-5-5-5-5-0-0-0-0-0-0-0-0-7-7-7-7-7-7-7-7-|
E|----------------------------------------------------------------|

Chorus

G|----------------------------------------------------------------------------------------|
D|-----------------------------------------0~--0~-----------------------------------------|
A|7~--7--7-7-7-7~--7~---------5~--5--5-5-5-5-5-5--5-5-5-5---------------------------------|
E|-------------0-0-0--0-0-0-0-----------------------------5-5-5-5-5-5-5-5-3-3-3-3-3-3-3-3-|

Outro x4

G|---------------------|
D|----7~---------------|
A|5-7---7-5-7~---------|
E|-------------5-5~-3~-|
            
Submit corrections


        Tweeter And The Monkey Man lessons Hard to play? Try these video lessons and learn fast Tweeter And The Monkey Man lessons
        
↑ Back to top | Tablatures and chords for acoustic guitar and electric guitar, ukulele, drums are parodies/interpretations of the original songs. You may use it for private study, scholarship, research or language learning purposes only