» » »

H-Blockx - Countdown To Insanity Tabs

Artists:  A B C D E F G H I J K L M N O P Q R S T U V W X Y Z # 

Countdown To Insanity Tabs

(ver. 3) Click to play this song!
H-Blockx
 Rating:
4/5 (4 votes)
                              Opening Riff
E b----------------------------------------------------------------------|
B b----------------------------------------------------------------------|
G b----------------------------------------------------------------------|
D b---------3h1p3---------3h1p3----4-----4p3---1---111------1------------|
A b--1---1-----------------------------------4-----------1---------------|
E b-----------------4--4--------------2----------------4-----------------|

E b----------------------------------------------------------------------|
B b----------------------------------------------------------------------|
G b----------------------------------------------------------------------|
D b---------3h1p3---------3h1h3----4------4p3----1-----------------------|
A b--1---1------------------------------------4--------------------------|
E b---------------4--4-----------------2---------------------------------|

Piano plays verse

  Chorus  2x
E b-----------------------------------------------|
B b-----------------------------------------------|
G b---3--3----1--1--------------------------------|
D b---3--3----1--1----4--4----1--1----------------|
A b---1--1----x--x----4--4----1--1----------------|
E b-----------4--4----2--2------------------------|

                3x
E b-----------------------------------------------|
B b-----------------------------------------------|
G b--3333---1111----------------------------------|
D b--3333---1111---4444---1111--------------------|
A b--1111---xxxx---4444---1111--------------------|
E b---------4444---2222---------------------------|


E b-----------------------------------------------|
B b-----------------------------------------------|
G b---3---------1---------------------------------|
D b---3---------1----------4----------------------|
A b---1---------x----------4----------------------|
E b-------------4----------2----------------------|
            
Submit corrections

↑ Back to top | Tablatures and chords for acoustic guitar and electric guitar, ukulele, drums are parodies/interpretations of the original songs. You may use it for private study, scholarship, research or language learning purposes only