Home » H » Have Mercy »

Have Mercy - My Oldest Friend Tabs

Artists:  A B C D E F G H I J K L M N O P Q R S T U V W X Y Z # 

My Oldest Friend Tabs

(ver. 1) Click to play this song!
Have Mercy
 Rating:
4/5 (4 votes)
                Part 1:

F#|-----------------------------------------------------------------------|
B|----2--------------2----3--------------3----3---------------------------|
F#|--------0-------------------0------------------------------------------|
D|------------------------------------------------------------------------|
A|----0---------0---------2---------2---------2---------------------------|
E|--------------------------------------------3---------------------------|

Part 2:

F#|----3----0--------0----------------------------------------------------|
B|---------------------------------3----0---------------------------------|
F#|-----------------------------------------------------------------------|
D|-----0------------------0-----------------------------------------------|
A|-------------------2----------------------------------------------------|
E|---------------------------------3--------------------------------------|

            
Submit corrections

↑ Back to top | Tablatures and chords for acoustic guitar and electric guitar, ukulele, drums are parodies/interpretations of the original songs. You may use it for private study, scholarship, research or language learning purposes only