» » »

Harmonium - Harmonium Tabs

Artists:  A B C D E F G H I J K L M N O P Q R S T U V W X Y Z # 

Harmonium Tabs

(ver. 1) Click to play this song!
Harmonium
 Rating:
4.3/5 (22 votes)

 Harmonium lessons Tabs too difficult? Try these video lessons and learn fast
 
                [Pickup]

 |1-e-e-a-2-e-e-a-3-e-e-a-4-e-e-a---|
e|----5-3-2-0---------------------------|
B|------------3-2-0---------------------|
G|------------------2-0-----------------|
D|----------------------4-2-0-2-4-------|
A|--------------------------------------|
E|--------------------------------------|


[Solo]

 |1-e-e-a-2-e-e-a-3-e-e-a-4-e-e-a-|1-e-e-a-2-e-e-a-3-e-e-a-4-e-e-a---|
e|--------------------------------|9-----7-----------------------------------|
B|------------------2---3-/-7-----|--------7---------------------------------|
G|--------------4-----------------|----------7---6-----4---6---7-------------|
D|----------4---------------------|------------------------------------------|
A|2-----4-5-----------------------|------------------------------------------|
E|--------------------------------|------------------------------------------|

 |1-e-e-a-2-e-e-a-3-e-e-a-4-e-e-a-|1-e-e-a-2-e-e-a-3-e-e-a-4-e-e-a---|
e|--------------------------------|------------------------------------------|
B|5h7p5p3h5---------------7-------|5h7p5p3h5---7---8h108p7h8---10------------|
G|--------------------------------|------------------------------------------|
D|--------------------------------|------------------------------------------|
A|--------------------------------|------------------------------------------|
E|--------------------------------|------------------------------------------|

 |1-e-e-a-2-e-e-a-3-e-e-a-4-e-e-a-|1-e-e-a-2-e-e-a-3-e-e-a-4-e-e-a---|
e|9-----7-7-----------------------|--------------7-9---107-------------------|
B|--------------------------------|------------7-------------7---------------|
G|--------------------------------|----------7-------------------------------|
D|--------------------------------|------9-11--------------------------------|
A|--------------------------------|----9-------------------------------------|
E|--------------------------------|--10--------------------------------------|

 |1-e-e-a-2-e-e-a-3-e-e-a-4-e-e-a-|1-e-e-a-2-e-e-a-3-e-e-a-4-e-e-a-|1-
e|--------------1012--1410--------|----------------10----------10/-|14---------|
B|------------12------------12----|--------------12--------12------|-----------|
G|----------11--------------------|----------1112------------------|-----------|
D|----9-1112----------------------|------9-12----------------------|-----------|
A|--9-----------------------------|--9/10--------------------------|-----------|
E|--------------------------------|--------------------------------|-----------|
            
Submit corrections


        Harmonium lessons Hard to play? Try these video lessons and learn fast Harmonium lessons
        
↑ Back to top | Tablatures and chords for acoustic guitar and electric guitar, ukulele, drums are parodies/interpretations of the original songs. You may use it for private study, scholarship, research or language learning purposes only