Home » H » Harlem »

Harlem - Beautiful And Very Smart Tabs

Artists:  A B C D E F G H I J K L M N O P Q R S T U V W X Y Z # 

Beautiful And Very Smart Tabs

(ver. 2) Click to play this song!
Harlem
 Rating:
3/5 (27 votes)
                
E------------------------------------------------------E
B--------------------------3/5---3/5--------3/5---3/5--B
G---------------------2-2---------------2-2------------G
D---2-2-2----2-2-2---3-3---------------3-3-------------D
A--3-3-3----3-3-3--------------------------------------A
E------------------------------------------------------E


And the chords are 

E--------2----------E
B-----5--3--5-------B
G--5--5--2--5-------G
D--5--3--0--3-------D
A--3----------------A
E-------------------E
I'm too lazy to do the strum pattern            
Submit corrections

↑ Back to top | Tablatures and chords for acoustic guitar and electric guitar, ukulele, drums are parodies/interpretations of the original songs. You may use it for private study, scholarship, research or language learning purposes only