» » »

Hank Williams Iii - Country Heroes Tabs

Artists:  A B C D E F G H I J K L M N O P Q R S T U V W X Y Z # 

Country Heroes Tabs

(ver. 3) Click to play this song!
Hank Williams Iii
 Rating:
4.3/5 (18 votes)

 Country Heroes lessons Tabs too difficult? Try these video lessons and learn fast
 
                [INTRO]
      
Guitar 1                         Am
e|-----------------------------------0---------------------------------------|
B|----------------------------------1----------------------------------------|
G|---------------------------------2-----------------------------------------|
D|--------------------------------2------------------------------------------|
A|-7--7-6-5-3~--3-5/7-5-5h7-5-3-0--------------------------------------------|
E|---------------------------------------------------------------------------|

e|--0---------------------------8-5---5-8-5---5------------------------------|
B|-/5--5-4-3-1-1-3/5-3--3h5-5/8-------------8--------------------------------|
G|---------------------------------------------------------------------------|
D|---------------------------------------------------------------------------|
A|---------------------------------------------------------------------------|
E|---------------------------------------------------------------------------|

Guitar 2 (Chords)
 The picking pattern is one down stroke on (A E D) followed by one up stroke on (A E D)strings of the chord
 then one down stroke on (G B e) strings followed by one up stroke on (G B e) strings.
 (Exclude string "A" on D chord obviously.)

If you don't understand the picking pattern just do what sounds best to you.
     Am       C        D
e|---0--------0--------2-----------------------------------------------------|
B|---1--------1--------3-----------------------------------------------------|
G|---2--x2----0--X2----2--X2-------------------------------------------------|X2
D|---2--------2--------0-----------------------------------------------------|
A|---0--------3--------------------------------------------------------------|
E|---------------------------------------------------------------------------|

[Verse & Chorus]
  The rest of the song is played just the "(Guitar 2)'s intro but maybe mute the strings here and there.   
    Am       C        D
e|---0--------0--------2-----------------------------------------------------|
B|---1--------1--------3-----------------------------------------------------|
G|---2--x2----0--X2----2--X2-------------------------------------------------|
D|---2--------2--------0-----------------------------------------------------|
A|---0--------3--------------------------------------------------------------|
E|---------------------------------------------------------------------------|

 Filler at (01:02)
 Filler at (02:33)
e|---------------------------------------------------------------------------|
B|---------------------------------------------------------------------------|
G|---------------------------------------------------------------------------|
D|---------------------------------------------------------------------------|
A|---------3-----------------------------------------------------------------|
E|-0-3-0-3---3-0-3b----------------------------------------------------------|
  
 Filler at (1:45)I can't figure out the higher sounding chords/notes I thing its the steel guitar.
 Filler at (2:14)
e|---------------------------------------------------------------------------|
B|---------------------------------------------------------------------------|
G|---------------------------------------------------------------------------|
D|---------------------------------------------------------------------------|
A|---------------------------------------------------------------------------|
E|-0-0-0-0-3-5---------------------------------------------------------------|
 
[Ending Chords]
   Am          Am
e|-0-----------0-------------------------------------------------------------|
B|---1---------1-------------------------------------------------------------|
G|-----2-------2-------------------------------------------------------------|
D|-------2-----2-------------------------------------------------------------|
A|---------0---0-------------------------------------------------------------|
E|-----------0---------------------------------------------------------------|            
Submit corrections


        Country Heroes lessons Hard to play? Try these video lessons and learn fast Country Heroes lessons
        
↑ Back to top | Tablatures and chords for acoustic guitar and electric guitar, ukulele, drums are parodies/interpretations of the original songs. You may use it for private study, scholarship, research or language learning purposes only