» » »

Hands Like Houses - Weight Tabs

Artists:  A B C D E F G H I J K L M N O P Q R S T U V W X Y Z # 

Weight Tabs

(ver. 1) Click to play this song!
Hands Like Houses
 Rating:
4.3/5 (15 votes)

 Weight  lessons Tabs too difficult? Try these video lessons and learn fast
 
                Intro

Guitar 1

e|---------------------------------------------------------------------------|
B|-------14-13---------------------------------------------------------------|
G|-13/15-------13-15-10-8-10-------------10-13--11-10-----------10-8---------|
D|---------------------------------11-13--------------11-8---11------11-10-11|
A|------------------------------13-------------------------------------------|
D|---------------------------------------------------------------------------|
(cont.)
e|---------6---------6---------8---------8---------6---------6-----------8---|
B|---------------------------------------------------------------------------|
G|-----------------------------------------8-6-8-6---8-6-8-6---10-8-10-8-----|
D|-8-6-8-6---8-6-8-6---8-6-8-6---8-6-8-6-------------------------------------|
A|---------------------------------------------------------------------------|
D|---------------------------------------------------------------------------|
(cont.)
e|-----------8--------------------18/-----16/--------------------------------|
B|---------------------------------------------------------------------------|
G|-10-8-10-8----/15~---------------------------------------------------------|
D|---------------------------------------------------------------------------|
A|---------------------------------------------------------------------------|
D|---------------------------------------------------------------------------|

Guitar 2

e|---------------------------------------------------------------------------|
B|---------------------------------------------------------------------------|
G|-3-----------------------3-----------------------3~------------------------|
D|-3-(x20)-4-------6-------3-(x20)-4-------6-------3~------------------------|
A|-1-------4-(x12)-6-(x12)-1-------4-(x12)-6-(x12)-1~------------------------|
D|---------4-------6---------------4-------6---------------------------------|

Verse 1

Guitar 1 (distortion)

e|---------------------------------------------------------------------------|
B|----------18-------------------------18------------------------------------|
G|-15-17-18-------------------15-17-18---------------------------------------|
D|---------------------------------------------------------------------------|
A|---------------------------------------------------------------------------|
D|---------------------------------------------------------------------------|

Guitar 2 (clean)

e|---------------------------------------------------------------------------|
B|----------------------------------9----------------------------------------|
G|---10--------8-10-----------10----------------------------8-10-------------|
D|------11-8--------8-11---11----11-----------------3------------8-11--------|
A|-8------------------------------------1-4-3-4---1---4-1--------------------|
D|---------------------------------------------------------------------------|
(cont.)
e|---------------------------------------------------------------------------|
B|---------------------------------------------------------------------------|
G|----10-8-------------------------------------------------------------------|
D|-11------11---10-11-13-11--------------------------------------------------|
A|---------------------------------------------------------------------------|
D|---------------------------------------------------------------------------|

Prechorus

Guitar 1

e|-------------------------------------------------------------16-13---------|
B|-------------------------18----------------------------------------13-14---|
G|-17h18p17-15-17h18p17-15----15-13-15-17h18p17-15-17h18p17-15---------------|
D|---------------------------------------------------------------------------|
A|---------------------------------------------------------------------------|
D|---------------------------------------------------------------------------|
(cont.)
e|-------------------------------------------------------------16-13---------|
B|-------------------------18----------------------------------------13-14---|
G|-17h18p17-15-17h18p17-15----15-13-15-17h18p17-15-17h18p17-15---------------|
D|---------------------------------------------------------------------------|
A|---------------------------------------------------------------------------|
D|---------------------------------------------------------------------------|

Guitar 2 (probably not correct but i cant hear it well enough)

e|---------------------------------------------------------------------------|
B|---------------------------------------------------------------------------|
G|-3-3--3/6--3-3--3/6--3-3--3/5--3-3--3/5------------------------------------| 
D|-3-3--3/6--3-3--3/6--3-3--3/5--3-3--3/5----------6/8---------6/8-----------|
A|-1-1--1/4--1-1--1/4--1-1--1/3--1-1--1/3--8-6-4-6-----8-6-4-6---------------|
D|---------------------------------------------------------------------------| 

e|---------------------------------------------------------------------------|
B|---------------------------------------------------------------------------|
G|-3-3-3h5-3-3-3h5-3-3-3h5-3-3-3h5-------------------------------------------|
D|-----------------------------------8/--------------------------------------|
A|-----------------------------------8/--------------------------------------|
D|-----------------------------------8/--------------------------------------|

Chorus

Guitar 1

e|----------------------------------------------------------13/14/13---------|
B|-------------------------------------------------14-13-11------------------|
G|--------10-11-10--------10-11-10--------10-11-10---------------------------|
D|-8-11p8----------8-11p8----------8-11p8------------------------------------|
A|---------------------------------------------------------------------------|
D|---------------------------------------------------------------------------|

e|----------------------------------------------------------13/14/13---------|
B|-------------------------------------------------14-13-11------------------|
G|--------10-11-10--------10-11-10--------10-11-10---------------------------|
D|-8-11p8----------8-11p8----------8-11p8------------------------------------|
A|---------------------------------------------------------------------------|
D|---------------------------------------------------------------------------|

Guitar 2

e|---------------------------------------------------------------------------|
B|---------------------------------------------------------------------------|
G|---------3-------6---------------------------------------------------------| x2
D|-1-------3-(x12)-6-(x12)-6-------------------------------------------------|
A|-1-(x12)-1-------4-------6-(x12)-------------------------------------------|
D|-1-----------------------6-------------------------------------------------|

Postchorus

Guitar 1

e|---------------------------------------------------------------------------|
B|---------------------------------------------------------------------------|
G|-------13----------13----------13----------13------------------------------|
D|-11-10----10-11-10----10-11-10----10-11-10----10-------11-10-------11-10---|
A|-------------------------------------------------11-13-------11-13---------|
D|---------------------------------------------------------------------------|

e|---------------------------------------------------------------------------|
B|---------------------------------------------------------------------------|
G|---------------------------------------------------------------------------|
D|-------11-10-------11-10---------------------------------------------------|
A|-11-13-------11-13---------------------------------------------------------|
D|---------------------------------------------------------------------------|

Guitar 2 (tremelo)

e|-9-9-9-9-9-9-9-9-9-9-9-9-9-9-9-16-16-16-16-16-16-16-16-16-11-11-11-11-11---|
B|---------------------------------------------------------------------------|
G|---------------------------------------------------------------------------|
D|---------------------------------------------------------------------------|
A|---------------------------------------------------------------------------|
D|---------------------------------------------------------------------------|

e|-9-9-9-9-9-9/--------------------------------------------------------------|
B|---------------------------------------------------------------------------|
G|---------------------------------------------------------------------------|
D|---------------------------------------------------------------------------|
A|---------------------------------------------------------------------------|
D|---------------------------------------------------------------------------|

Verse 2

Guitar 1 (right channel)

e|---------------------------------------------------------------------------|
B|-14-13-9-11---------------------------------14-13-9-11---------------------|
G|------------8-10------8-10-8---------8-10--------------8-10------8-10-8----|
D|-----------------8-11--------11-8-11------------------------8-11--------11-|
A|---------------------------------------------------------------------------|
D|---------------------------------------------------------------------------|

e|---------------------------------------------------------------------------|
B|---------------------------------------------------------------------------|
G|---------------------------------------------------------------------------|
D|-8-11-10-11----------------------------------------------------------------|
A|---------------------------------------------------------------------------|
D|---------------------------------------------------------------------------|

Guitar 2 (left channel)

e|---------------------------------------------------------------------------|
B|------------------18-------------------------------------------------------|
G|---------15-17-18----------------------------------------------------------| x2
D|---6-----------------------6-----------------------------------------------|
A|-1---4-1-------------4-6-4---1-4-3-4---------------------------------------|
D|---------------------------------------------------------------------------|

Prechorus

Guitar 1

e|-------------------------------------------------------------16-13---------|
B|-------------------------18----------------------------------------13-14---|
G|-17h18p17-15-17h18p17-15----15-13-15-17h18p17-15-17h18p17-15---------------|
D|---------------------------------------------------------------------------|
A|---------------------------------------------------------------------------|
D|---------------------------------------------------------------------------|
(cont.)
e|-------------------------------------------------------------16-13---------|
B|-------------------------18----------------------------------------13-14---|
G|-17h18p17-15-17h18p17-15----15-13-15-17h18p17-15-17h18p17-15---------------|
D|---------------------------------------------------------------------------|
A|---------------------------------------------------------------------------|
D|---------------------------------------------------------------------------|

Guitar 2 (probably not correct but i cant hear it well enough)

e|---------------------------------------------------------------------------|
B|---------------------------------------------------------------------------|
G|-3-3--3/6--3-3--3/6--3-3--3/5--3-3--3/5------------------------------------| 
D|-3-3--3/6--3-3--3/6--3-3--3/5--3-3--3/5----------6/8---------6/8-----------|
A|-1-1--1/4--1-1--1/4--1-1--1/3--1-1--1/3--8-6-4-6-----8-6-4-6---------------|
D|---------------------------------------------------------------------------| 

e|---------------------------------------------------------------------------|
B|---------------------------------------------------------------------------|
G|-3-3-3h5-3-3-3h5-3-3-3h5-3-3-3h5-------------------------------------------|
D|-----------------------------------8/--------------------------------------|
A|-----------------------------------8/--------------------------------------|
D|-----------------------------------8/--------------------------------------|

Chorus

Guitar 1

e|----------------------------------------------------------13/14/13---------|
B|-------------------------------------------------14-13-11------------------|
G|--------10-11-10--------10-11-10--------10-11-10---------------------------|
D|-8-11p8----------8-11p8----------8-11p8------------------------------------|
A|---------------------------------------------------------------------------|
D|---------------------------------------------------------------------------|

e|----------------------------------------------------------13/14/13---------|
B|-------------------------------------------------14-13-11------------------|
G|--------10-11-10--------10-11-10--------10-11-10---------------------------|
D|-8-11p8----------8-11p8----------8-11p8------------------------------------|
A|---------------------------------------------------------------------------|
D|---------------------------------------------------------------------------|

Guitar 2

e|---------------------------------------------------------------------------|
B|---------------------------------------------------------------------------|
G|---------3-------6---------------------------------------------------------| x2
D|-1-------3-(x12)-6-(x12)-6-------------------------------------------------|
A|-1-(x12)-1-------4-------6-(x12)-------------------------------------------|
D|-1-----------------------6-------------------------------------------------|

Bridge

Guitar 1

e|-------16----16/---18/---------16----13/---11/---------16----16/---18/-----|
B|-13-14----16-------------13-14----16-------------13-14----16---------------|
G|---------------------------------------------------------------------------|
D|---------------------------------------------------------------------------|
A|---------------------------------------------------------------------------|
D|---------------------------------------------------------------------------|

e|-------16----13/---11/-----------------------------------------------------|
B|-13-14----16---------------------------------------------------------------|
G|---------------------------------------------------------------------------|
D|---------------------------------------------------------------------------|
A|---------------------------------------------------------------------------|
D|---------------------------------------------------------------------------|

Guitar 2

e|---------------------------------------------------------------------------|
B|---------------------------------------------------------------------------|
G|--------3------------------------------------------------------------------| x4
D|-1------3---6--------------------------------------------------------------|
A|-1-(x8)-1---6--------------------------------------------------------------|
D|-1----------6--------------------------------------------------------------|

Break

Guitar 1

e|---------------------------------------------------------------------------|
B|-------14-13---------------------------------------------------------------|
G|-13/15-------13-15-10-8-10-------------10-13--11-10-----------10-8---------|
D|---------------------------------11-13--------------11-8---11------11-10-11|
A|------------------------------13-------------------------------------------|
D|---------------------------------------------------------------------------|
(cont.)
e|---------6---------6---------8---------8---------6---------6-----------8---|
B|---------------------------------------------------------------------------|
G|-----------------------------------------8-6-8-6---8-6-8-6---10-8-10-8-----|
D|-8-6-8-6---8-6-8-6---8-6-8-6---8-6-8-6-------------------------------------|
A|---------------------------------------------------------------------------|
D|---------------------------------------------------------------------------|

Guitar 2

e|---------------------------------------------------------------------------|
B|---------------------------------------------------------------------------|
G|-3-----------------------3-------------------------------------------------|
D|-3-(x20)-4-------6-------3-(x20)-4-------6---------------------------------|
A|-1-------4-(x12)-6-(x12)-1-------4-(x12)-6-(x4)----------------------------|
D|---------4-------6---------------4-------6---------------------------------|

Final Chorus

Guitar 1

e|---------------------------13/14/13----------------------------------------|
B|------------------14-13-11-------------------------------------------------|
G|--------10-11-10-----------------------------------------------------------|
D|-8-11p8--------------------------------------------------------------------|
A|---------------------------------------------------------------------------|
D|---------------------------------------------------------------------------|

e|----------------------------------------------------------13/14/13---------|
B|-------------------------------------------------14-13-11------------------|
G|--------10-11-10--------10-11-10--------10-11-10---------------------------|
D|-8-11p8----------8-11p8----------8-11p8------------------------------------|
A|---------------------------------------------------------------------------|
D|---------------------------------------------------------------------------|

Guitar 2

e|---------------------------------------------------------------------------|
B|---------------------------------------------------------------------------|
G|---------3-------6---------------------------------------------------------| x2
D|-1-------3-(x12)-6-(x12)-6-------------------------------------------------|
A|-1-(x12)-1-------4-------6-(x12)-------------------------------------------|
D|-1-----------------------6-------------------------------------------------|

Outro

Guitar 1 and/or 2 

e|---------------------------------------------------------------------------|
B|---------------------------------------------------------------------------|
G|-3-----------------------3-----------------------3~------------------------|
D|-3-(x20)-4-------6-------3-(x20)-4-------6-------3~------------------------|
A|-1-------4-(x12)-6-(x12)-1-------4-(x12)-6-(x12)-1~------------------------|
D|---------4-------6---------------4-------6---------------------------------|

            
Submit corrections


        Weight  lessons Hard to play? Try these video lessons and learn fast Weight  lessons
        
↑ Back to top | Tablatures and chords for acoustic guitar and electric guitar, ukulele, drums are parodies/interpretations of the original songs. You may use it for private study, scholarship, research or language learning purposes only