» » »

Hands Like Houses - Torn Tabs

Artists:  A B C D E F G H I J K L M N O P Q R S T U V W X Y Z # 

Torn Tabs

(ver. 1) Click to play this song!
Hands Like Houses
 Rating:
4.4/5 (21 vote)

 Torn  lessons Tabs too difficult? Try these video lessons and learn fast
 
                Tuning: Standard eBGDAE

Verse

e|---------------------------------------------------------------------------|
B|---------------------------------------------------------------------------|
G|--9~-----------------------------------------------------------------------| X2
D|--9~----------9~--------7~-------------------------------------------------|
A|--7~----------9~--------7~-------------------------------------------------|
E|--------------7~--------5~-------------------------------------------------|

Pre-chorus

e|---------------------------------------------------------------------------|
B|---------------------------------------------------------------------------|
G|--6~-----------------------------------------------------------------------|
D|--6~--------9~-------6~------9~--------------------------------------------|
A|--4~--------9~-------6~------9~--------------------------------------------|
E|------------7~-------4~------7~--------------------------------------------|

Chorus 

e|---------------------------------------------------------------------------|
B|---------------------------------------------------------------------------|
G|--99999-------66666-------99999--------------------------------------------|X3
D|--99999-99999-66666-77777-99999--------------------------------------------|
A|--77777-99999-44444-77777-77777--------------------------------------------|
E|--------77777-------55555--------------------------------------------------|

Verse II

e|---------------------------------------------------------------------------|
B|---------------------------------------------------------------------------|
G|--9~-----------------------------------------------------------------------|
D|--9~--11/10/9~-------7~----------------------------------------------------|
A|--7~--11/10/9~-------7~----------------------------------------------------|
E|------9 /8 /7~-------5~----------------------------------------------------|

Pre-chorus

e|---------------------------------------------------------------------------|
B|---------------------------------------------------------------------------|
G|--6~-----------------------------------------------------------------------|
D|--6~--------9~-------6~------9~--------------------------------------------|
A|--4~--------9~-------6~------9~--------------------------------------------|
E|------------7~-------4~------7~--------------------------------------------|

Chorus 

e|---------------------------------------------------------------------------|
B|---------------------------------------------------------------------------|
G|--99999-------66666-------99999--------------------------------------------|X3
D|--99999-99999-66666-77777-99999--------------------------------------------|
A|--77777-99999-44444-77777-77777--------------------------------------------|
E|--------77777-------55555--------------------------------------------------|

Bridge

e|---------------------------------------------------------------------------|
B|---------------------------------------------------------------------------|
G|--6~-------------4~------------9~------------------------------------------|
D|--6~--------7~---4~----9~------9~------------------------------------------|
A|--4~--------7~---6~----9~------7~------------------------------------------|
E|------------5~---------7~--------------------------------------------------|

Pre chorus and Chorus again

Outro

e|---------------------------------------------------------------------------|
B|---------------------------------------------------------------------------|
G|--6----------4-------------------------------------------------------------|
D|--6-----9----4-------------------------------------------------------------|
A|--4-----9----6-------------------------------------------------------------|
E|--------7------------------------------------------------------------------|            
Submit corrections


        Torn  lessons Hard to play? Try these video lessons and learn fast Torn  lessons
        
↑ Back to top | Tablatures and chords for acoustic guitar and electric guitar, ukulele, drums are parodies/interpretations of the original songs. You may use it for private study, scholarship, research or language learning purposes only