» » »

Hands Like Houses - Glasshouse Tabs

Artists:  A B C D E F G H I J K L M N O P Q R S T U V W X Y Z # 

Glasshouse Tabs

(ver. 1) Click to play this song!
Hands Like Houses
 Rating:
4.4/5 (7 votes)

 Glasshouse  lessons Tabs too difficult? Try these video lessons and learn fast
 
                [Intro]

C#|---------------------------------------------------------------------------|
G#|---------------------------------------------------------------------------|
E |---------------------------------------------------------------------------|
B |---------------------------------------------------------------------------|(x2)
F#|-9---------4444---------------4---5555-7777--------------------------------|
B |--0-2-0-4------2222--(x2)--0-0-0-0-------------(x2)------------------------|
     *   *                      * *


[Verse] 

(No guitar, only bass)


[Pre-Chorus]

 The pattern for the bends is easy enough to figure out.


C#|---------------------------------------------------------------------------|
G#|---------------------------------------------------------------------------|
E |---------------------------------------------------------------------------|x2
B |---------------------------------------------------------------------------|
F#|---------------------------------------------------------------------------|
B |---4-4b---2(x7)-7-7-7-7--2-2-2-2-------------------------------------------|


[Chorus]

(Rhythm)

C#|---------------------------------------------------------------------------|
G#|---------------------------------------------------------------------------|
E |---------------------------------------------------------------------------|x4
B |---------------------------------------------------------------------------|
F#|-0-0-0-0~-0-0-0-2-2-2-4-4-4-4~-4-4-4-7-7-7---------------------------------|
B |-0-0-0-0~-0-0-0-2-2-2-4-4-4-4~-4-4-4-7-7-7---------------------------------|

(Lead) 
(After the rhythm plays twice)

C#|--16b----------------------------------------------------------------------|
G#|-----17-14----------------------------14-14--------------------------------|
E |----------16-14---(x2)-------14--14-16-------(x2)--------------------------|
B |---------------16-------14-16--16------------------------------------------|(x2)
F#|---------------------------------------------------------------------------|
B |---------------------------------------------------------------------------|


[Post-Chorus]


C#|---------------------------------------------------------------------------|
G#|---------------------------------------------------------------------------|
E |---------------------------------------------------------------------------|
B |---------------------------------------------------------------------------|
F#|-9---------4444---------------4---5555-7777--------------------------------|
B |--0-2-0-4------2222--(x2)--0-0-0-0-------------(x2)------------------------|
     *   *                      * *


[Verse 2]

C#|---------------------------------------------------------------------------|
G#|---------------------------------------------------------------------------|
E |--11-------9------14------9------------------------------------------------|
B |--x--------x------x-------x------------------------------------------------|(x2)
F#|--9-(x36)--7-(x7)-12-(x4)-7-(x4)-------------------------------------------|
B |---------------------------------------------------------------------------|
    

[Pre-Chorus] 

C#|---------------------------------------------------------------------------|
G#|---------------------------------------------------------------------------|
E |---------------------------------------------------------------------------|
B |---------------------------------------------------------------------------|(x2)
F#|---------------------------------------------------------------------------|
B |---4-4b---2(x7)-7777-2222--------------------------------------------------|


[Chorus]

(Rhythm)

C#|---------------------------------------------------------------------------|
G#|---------------------------------------------------------------------------|
E |---------------------------------------------------------------------------|x4
B |---------------------------------------------------------------------------|
F#|-0-0-0-0~-0-0-0-2-2-2-4-4-4-4~-4-4-4-7-7-7---------------------------------|
B |-0-0-0-0~-0-0-0-2-2-2-4-4-4-4~-4-4-4-7-7-7---------------------------------|

(Lead) 
(After the rhythm plays twice)

C#|--16b----------------------------------------------------------------------|
G#|-----17-14----------------------------14-14--------------------------------|
E |----------16-14---(x2)-------14--14-16-------(x2)--------------------------|
B |---------------16-------14-16--16------------------------------------------|(x2)
F#|---------------------------------------------------------------------------|
B |---------------------------------------------------------------------------|


[Bridge] 

(Again, the bend pattern is easy)

C#|---------------------------------------------------------------------------|
G#|---------------------------------------------------------------------------|
E |---------------------------------------------------------------------------|
B |---------------------------------------------------------------------------|
F#|----------5----------------------------------------------------------------|
B |---4-4b----0-0-2-----------------------------------------------------------|
              *


[Chorus]

(Rhythm)

C#|---------------------------------------------------------------------------|
G#|---------------------------------------------------------------------------|
E |---------------------------------------------------------------------------|x4
B |---------------------------------------------------------------------------|
F#|-0-0-0-0~-0-0-0-2-2-2-4-4-4-4~-4-4-4-7-7-7---------------------------------|
B |-0-0-0-0~-0-0-0-2-2-2-4-4-4-4~-4-4-4-7-7-7---------------------------------|

(Lead) 
(After the rhythm plays twice)

C#|--16b----------------------------------------------------------------------|
G#|-----17-14----------------------------14-14--------------------------------|
E |----------16-14---(x2)-------14--14-16-------(x2)--------------------------|
B |---------------16-------14-16--16------------------------------------------|(x2)
F#|---------------------------------------------------------------------------|
B |---------------------------------------------------------------------------|


[Outro]

(same thing as the bridge with minor differences)            
Submit corrections


        Glasshouse  lessons Hard to play? Try these video lessons and learn fast Glasshouse  lessons
        
↑ Back to top | Tablatures and chords for acoustic guitar and electric guitar, ukulele, drums are parodies/interpretations of the original songs. You may use it for private study, scholarship, research or language learning purposes only