» » »

Hands Like Houses - Colourblind Tabs

Artists:  A B C D E F G H I J K L M N O P Q R S T U V W X Y Z # 

Colourblind Tabs

(ver. 1) Click to play this song!
Hands Like Houses
 Rating:
4.3/5 (28 votes)

 Colourblind  lessons Tabs too difficult? Try these video lessons and learn fast
 
                Rhythm Intro - Whole Thing 2x 
C#|--------------------|----------------------------|
G#|--------------------|----------------------------|
E |--------------------|----------------------------|
B |-8--0--00--0--00--0-|-888-0--0--3333-10-10-10-10-|
F#|-8--0--00--0--00--0-|-888-0--0--3333-10-10-10-10-|
B |-8--0--00--0--00--0-|-888-0--0--3333-10-10-10-10-|

Lead Intro - Listen to get timing 
C#|-------------|
G#|-----13------|
E |---------14~-|
B |--12---------|
F#|-------------|
B |-------------|

----------------------------------

Lead Verse - Listen to get timing *CLEAN*
C#|-5---5-----|----|-5---5-----|------------|-5---5----12-13~-|
G#|---6---5~--|----|---6---5~--|-8----8-----|---6---5---------|
E |-----------|----|-----------|---10---10~-|-----------------|
B |-----------|----|-----------|------------|-----------------|
F#|-----------|----|-----------|------------|-----------------|
B |-----------|----|-----------|------------|-----------------|

C#|-5---5-----|----|-5---5----13^-|------------10/12-|
G#|---6---5~--|----|---6---5------|-8----8-----------|
E |-----------|----|--------------|---10---10--------|
B |-----------|----|--------------|------------------|
F#|-----------|----|--------------|------------------|
B |-----------|----|--------------|------------------|

Rhythm Verse - Whole thing 2x *CLEAN*
C#|------------|----|------------------|-------------|
G#|------------|----|---------1--------|---------3~--|
E |-7-7-7------|----|------------------|-------------|
B |--------7~--|----|---3--3------3--3-|----5--3-----|
F#|------------|----|-1----------------|-3-----------|
B |------------|----|------------------|-------------|

----------------------------------

Lead Pre-Chorus - Whole thing 2x 
C#|-10--10--10--10--10--10--10--10---|-13--13--13--13--13--13--13--13---|
G#|---10--10--10--10--10--10--10--10-|---10--10--10--10--10--10--10--10-|
E |----------------------------------|----------------------------------|
B |----------------------------------|----------------------------------|
F#|----------------------------------|----------------------------------|
B |----------------------------------|----------------------------------|

C#|-13--13--13--13--13--13--13--13---|-12--12--12--12--12--12--12--12---|
G#|---10--10--10--10--10--10--10--10-|---10--10--10--10--10--10--10--10-|
E |----------------------------------|----------------------------------|
B |----------------------------------|----------------------------------|
F#|----------------------------------|----------------------------------|
B |----------------------------------|----------------------------------|

Rhythm Pre-Chorus - Whole thing 2x *PALM MUTED THROUGHOUT*   
C#|------------------------------|
G#|------------------------------|
E |------------------------------|  
B |-8------5------0------10------|
F#|-8-x16--5-x16--0-x16--10-x16--|
B |-8------5------0------10------|

----------------------------------

Lead Chorus - 
C#|-------13----------13-|-------13----------13-|
G#|-15-15-----15---15----|-15-15-----15---15----|
E |----------------------|----------------------|
B |----------------------|----------------------|
F#|----------------------|----------------------|
B |----------------------|----------------------|

C#|-------12----------12-|-12-X4--13-13-15-|
G#|-13-13----13---13-----|-----------------|
E |----------------------|-----------------|
B |----------------------|-----------------|
F#|----------------------|-----------------|
B |----------------------|-----------------|

C#|-------13----------13-|-------13----------13-|
G#|-15-15-----15---15----|-15-15-----15---15----|
E |----------------------|----------------------|
B |----------------------|----------------------|
F#|----------------------|----------------------|
B |----------------------|----------------------|

C#|-------12----------12-|-12-X4--|
G#|-13-13----13---13-----|--------|
E |----------------------|--------|
B |----------------------|--------|
F#|----------------------|--------|
B |----------------------|--------|

Rhythm Chorus -
C#|----------------------------|---------------------|
G#|----------------------------|---------------------|
E |----------------------------|---------------------|
B |-8------0------10------7----|-8------0-----10-----|
F#|-8-x16--0-x16--10-x24--7-x8-|-8-x16--0-16--10-x24-|
B |-8------0------10------7----|-8------0-----10-----|


Both Repeat Intro | Both Repeat Verse | Both Repeat Pre-Chorus | Both Repeat Chorus

Both Breakdown - Listen to get timing 
C#|--------------------|---------------|--------------------|----------------|
G#|--------------------|---------------|--------------------|----------------|
E |--------------------|---------------|--------------------|----------------|
B |--------------------|---------------|--------------------|----------------|
F#|--------------------|---------------|--------------------|----------------|
B |-000000--00--00--00-|-00--00--0-x10-|-000000--00--00--00-|-00--00--000000-|

C#|-----------------------------|------------------------------|
G#|-----------------------------|------------------------------|
E |-----------------------------|------------------------------|
B |-----------------------------|------------------------------|
F#|-----------------------------|----------0-0-8-8-8-8-3-3-3-3-|
B |-0-0-0-0--13-0--00--13-0--00-|-13-0-00--0-0-8-8-8-8-3-3-3-3-|

C#|---------------------------------|------------------------------|
G#|---------------------------------|------------------------------|
E |---------------------------------|------------------------------|
B |---------------------------------|------------------------------|
F#|---------------------------------|----------0-0-8-8-8-8-3-3-3-3-|
B |-13-13-13-13-13-0--00--13-0--0-0-|-13-0-00--0-0-8-8-8-8-3-3-3-3-|            
Submit corrections


        Colourblind  lessons Hard to play? Try these video lessons and learn fast Colourblind  lessons
        
↑ Back to top | Tablatures and chords for acoustic guitar and electric guitar, ukulele, drums are parodies/interpretations of the original songs. You may use it for private study, scholarship, research or language learning purposes only