Home » H » Hancock Herbie »

Hancock Herbie - Watermelon Man Bass

Artists:  A B C D E F G H I J K L M N O P Q R S T U V W X Y Z # 

Watermelon Man Bass

(ver. 1) Click to play this song!
Hancock Herbie
Bassist: ?
late 60's and not the fushion version he did in the early 70's. It's a basic 
16 bar blues pattern in the key of F and going between the root, 4th and 5th

                 X4               X2               X2
G*----------------*--------1-1---3-*----------------*
D*--------1-1---3-*----0h3-----3---*--------1-1---3-*
A*----0h3-----3---*1---------------*----0h3-----3---*
E*1---------------*----------------*1---------------*

                                                                             
              X4
G*--------5-5-3-5-*--------3-3-1-3-*
D*------5---------*------3---------*
A*3---------------*1---------------*
E*----------------*----------------*
            
Submit corrections

↑ Back to top | Tablatures and chords for acoustic guitar and electric guitar, ukulele, drums are parodies/interpretations of the original songs. You may use it for private study, scholarship, research or language learning purposes only