Home » H » Hancock Herbie »

Hancock Herbie - Thieves In The Temple Bass

Artists:  A B C D E F G H I J K L M N O P Q R S T U V W X Y Z # 

Thieves In The Temple Bass

(ver. 1) Click to play this song!
Hancock Herbie
herbie_hancock/thieves_in_the_temple.btab

Basstab by Jan Bjorklund, Finland; 
You are welcome to request for basstabs!
Bienvenidos a pedirme transcripciones para el bajo!


TablEdited by Jan Bjorklund
Tuning : B E A D G 	Time Signature: 4/4

 tempo 122       |       |        |       |       |       |        
|--------------------------------|------------3p--0---------------|
|------------3-------------------|------------------------2-------|
|--------------------1-------1---|--------------------------------|
|3-----------------------3-------|3-------------------0-----------|
|--------------------------------|--------------------------------|

 |       |       |       |        |       |       |       |        
|--------------------------------|------------3p--0---------------|
|------------3-------------------|--------------------------------|
|--------------------1-------1---|--------------------------------|
|3-----------------------3-------|3-----------------------0-------|
|--------------------------------|--------------------------------|

 |       |       |       |        |       |       |       |        
|--------------------------------|------------3p--0---------------|
|------------3-------------------|------------------------2-------|
|--------------------1-------1---|--------------------------------|
|3-----------------------3-------|3-------------------0-----------|
|--------------------------------|--------------------------------|

 |       |       |       |        |       |       |       |        
|--------------------------------|------------3p--0---------------|
|------------3-------------------|--------------------------------|
|--------------------1-------1---|--------------------------------|
|3-----------------------3-------|3-----------------------0-------|
|--------------------------------|--------------------------------|

 |       |       |       |        |       |       |       |        
|--------------------------------|------------3p--0---------------|
|------------3-------------------|------------------------2-------|
|--------------------1-------1---|--------------------------------|
|3-----------------------3-------|3-------------------0-----------|
|--------------------------------|--------------------------------|

 |       |       |       |        |       |       |       |        
|--------------------------------|------------3p--0---------------|
|------------3-------------------|------------------------2-------|
|--------------------1-------1---|--------------------------------|
|3-----------------------3-------|3-------------------------------|
|--------------------------------|--------------------------------|

 |       |       |       |        |       |       |       |        
|--------------------------------|------------3p--0---------------|
|--------------------------------|------------------------2---2---|
|3-----------3-----------1-------|3-------------------------------|
|--------------------3-------3---|--------------------------------|
|--------------------------------|--------------------------------|

 |       |       |       |        |       |       |       |        
|--------------------------------|------------3p--0---------------|
|------------3-------------------|------------------------2-------|
|--------------------1-------1---|--------------------------------|
|3-----------------------3-------|3-------------------------------|
|--------------------------------|--------------------------------|

 |       |       |       |        |       |       |       |        
|--------------------------------|------------3p--0---------------|
|------------3-------------------|------------------------2-------|
|--------------------1-------1---|--------------------------------|
|3-----------------------3-------|3-------------------0-----------|
|--------------------------------|--------------------------------|

 |       |       |       |        |       |       |       |        
|--------------------------------|------------3p--0---------------|
|------------3-------------------|------------------------2---2---|
|--------------------1-------1---|--------------------------------|
|3-----------------------3-------|3-------------------------------|
|--------------------------------|--------------------------------|

 |       |       |       |        |       |       |       |        
|--------------------------------|------------3p--0---------------|
|--------------------------------|----------------------------2---|
|3-----------3-----------1-------|3-------------------------------|
|--------------------3-------3---|------------------------0-------|
|--------------------------------|--------------------------------|

 |       |       |       |        |       |       |       |        
|--------------------------------|------------3p--0---------------|
|------------3-------------------|--------------------2---2-------|
|--------------------1-------1---|--------------------------------|
|3-----------------------3-------|3-------------------------------|
|--------------------------------|--------------------------------|

 |       |       |       |        |       |       |       |        
|--------------------------------|------------3-------3---0---0---|
|--------------------------------|--------------------------------|
|3-----------3-----------1-------|3-------------------------------|
|--------------------3-------3---|--------------------------------|
|--------------------------------|--------------------------------|

 |       |       |       |        |       |       |       |        
|--------------------------------|------------3p--0---------------|
|------------3-------------------|------------------------2-------|
|--------------------1-------1---|--------------------------------|
|3-----------------------3-------|3-------------------0-----------|
|--------------------------------|--------------------------------|

 |       |       |       |        |       |       |       |        
|--------------------------------|------------3p--0---------------|
|--------------------------------|------------------------2-------|
|3-----------3-----------1-------|3---3---------------------------|
|--------------------3-------3---|--------------------------------|
|--------------------------------|--------------------------------|

 |       |       |       |        |       |       |       |        
|--------------------------------|--------------------------------|
|0-------0-------------------0---|--------------------------------|
|--------------------------------|-----this is basically it !-----|
|--------------------------------|--------------------------------|
|--------------------------------|--------------------------------|
            
Submit corrections

↑ Back to top | Tablatures and chords for acoustic guitar and electric guitar, ukulele, drums are parodies/interpretations of the original songs. You may use it for private study, scholarship, research or language learning purposes only