Home » H » Hammerfall »

Hammerfall - Hearts On Fire Bass

Artists:  A B C D E F G H I J K L M N O P Q R S T U V W X Y Z # 

Hearts On Fire Bass

(ver. 2) Click to play this song!
Hammerfall
 Rating:
4/5 (4 votes)
                
HEARTS ON FIRE (Bassline)
As recorded by Hammerfall
(From the 2003 Album CRIMSON THUNDER)



 Words and Music by Joacin Cans, Stefan Elmgren, Oscar Dronjak, Magnus Rosen and Aders Johanson

 

Gtr I (Eb Ab Db Gb) - 'Magnus Rosen'


 Intro
  Moderately Fast Q=95
 4/4
  Gtr I
  E E Q  H      W          E E Q  H      S S S S S S S S S S S S S S S S
|-------------|----------|-------------|-----------------------------------|
|-------------|----------|-------------|-----------------------------------|
|-------------|----------|-------------|-5-5-5-5-5-5-5-5-5-5-5-5-5-5-5-3---|
|-3-3---------|----------|-3-3---------|-----------------------------------|


  E E Q  H      W          E E Q  H      S S S S S S S S S S S S S S S S
|-------------|----------|-------------|----------------------------------||
|-------------|----------|-------------|----------------------------------||
|-------------|----------|-------------|-5-5-5-5-5-5-5-5-5-5-5-5-5-5-5-3--||
|-3-3---------|----------|-3-3---------|----------------------------------||


   1st and 2nd Verses
    E E Q  H      E E Q  H      E E Q  H      S S S S S S S S S S S S S S S S
||--------------|-------------|-------------|---------------------------------|
||o-------------|-------------|-------------|---------------------------------|
||o-------------|-------------|-------------|-5-5-5-5-5-5-5-5-5-5-5-5-5-5-5-3-|
||--3-3---------|-3-3---------|-3-3---------|---------------------------------|


  E S S S S S S S S S S S S S S   E S S S S S S S S S S S S S S
|-------------------------------|-------------------------------|
|-------------------------------|-------------------------------|
|-------------------------------|-------------------------------|
|-3-3-3-3-3-3-3-3-3-3-3-3-3-3-3-|-3-3-3-3-3-3-3-3-3-3-3-3-3-3-3-|


  E S S S S S S S S S S S S S S   S S S S S S S S S S S S S S S S
|-------------------------------|---------------------------------||
|-------------------------------|---------------------------------||
|-------------------------------|-5-5-5-5-5-5-5-5-5-5-5-5-5-5-5-3-||
|-3-3-3-3-3-3-3-3-3-3-3-3-3-3-3-|---------------------------------||


 Pre-Chorus
  S S S S S S S S S S S S S S S S   S S S S S S S S S S S S S S S S
|---------------------------------|---------------------------------|
|---------------------------------|-3-3-3-3-3-3-3-3-3-3-3-3-3-3-3-3-|
|---------------------------------|---------------------------------|
|-5-5-5-5-5-5-5-5-5-5-5-5-5-5-5-5-|---------------------------------|


  S S S S S S S S S S S S S S S S   S S S S S S S S S S S S S S S S
|---------------------------------|------------------------------------||
|---------------------------------|------------------------------------||
|---------------------------------|-5-5-5-5-5-5-5-5-5-5-5-5-5-5-5-5----||
|-5-5-5-5-5-5-5-5-5-5-5-5-5-5-5-5-|------------------------------------||


 Chorus
 4/4
  S S S S S S S S S S S S S S S S   S S S S S S S S S S S S S S S S
|---------------------------------|---------------------------------|
|---------------------------------|---------------------------------|
|---------------------------------|---------------------------------|
|-5-5-5-5-5-5-5-5-5-5-5-5-5-5-5-5-|-8-8-8-8-8-8-8-8-7-7-7-7-7-7-7-7-|


  S S S S S S S S S S S S S S S S   S S S S S S S S S S S S S S S S
|---------------------------------|-----------------------------------|
|---------------------------------|-----------------------------------|
|---------------------------------|-----------------------------------|
|-5-5-5-5-5-5-5-5-5-5-5-5-5-5-5-5-|-8-8-8-8-8-8-8-8-7-7-7-7-7-7-7-7---|


  S S S S S S S S S S S S S S S S   S S S S S S S S S S S S S S S S
|---------------------------------|---------------------------------|
|---------------------------------|---------------------------------|
|---------------------------------|---------------------------------|
|-5-5-5-5-5-5-5-5-5-5-5-5-5-5-5-5-|-8-8-8-8-8-8-8-8-7-7-7-7-7-7-7-7-|


  S S S S S S S S S S S S S S S S
|---------------------------------||
|---------------------------------||
|---------------------------------||
|-8-8-8-8-8-8-8-8-7-7-7-7-7-7-7-7-||


  1.
  E E Q  H      W          E E Q  H      S S S S S S S S S S S S S S S S
|-------------|----------|-------------|-----------------------------------||
|-------------|----------|-------------|----------------------------------o||
|-------------|----------|-------------|-5-5-5-5-5-5-5-5-5-5-5-5-5-5-5-3--o||
|-3-3---------|----------|-3-3---------|-----------------------------------||


 Guitar Solo - S.Elmgren
  2.
 4/4
  S S S S S S S S S S S S S S S S   S S S S S S S S S S S S S S S S
|---------------------------------|---------------------------------|
|---------------------------------|---------------------------------|
|-5-5-5-5-5-5-5-5-5-5-5-5-5-5-5-5-|-1-1-1-1-1-1-1-1-3-3-3-3-3-3-3-3-|
|---------------------------------|---------------------------------|


  S S S S S S S S S S S S S S S S   S S S S S S S S S S S S S S S S
|---------------------------------|-----------------------------------|
|---------------------------------|-----------------------------------|
|-5-5-5-5-5-5-5-5-5-5-5-5-5-5-5-5-|-1-1-1-1-1-1-1-1-3-3-3-3-3-3-3-3---|
|---------------------------------|-----------------------------------|


 4/4
  S S S S S S S S S S S S S S S S   S S S S S S S S S S S S S S S S
|---------------------------------|---------------------------------|
|---------------------------------|---------------------------------|
|-5-5-5-5-5-5-5-5-5-5-5-5-5-5-5-5-|-1-1-1-1-1-1-1-1-3-3-3-3-3-3-3-3-|
|---------------------------------|---------------------------------|


  S S S S S S S S S S S S S S S S   S S S S S S S S S S S S S S S S
|---------------------------------|-----------------------------------||
|---------------------------------|-----------------------------------||
|-5-5-5-5-5-5-5-5-5-5-5-5-5-5-5-5-|-1-1-1-1-1-1-1-1-3-3-3-3-3-3-3-3---||
|---------------------------------|-----------------------------------||


 Lead Break - S.Elmgren
 4/4
  S S S S S S S S S S S S S S S S   S S S S S S S S S S S S S S S S
|---------------------------------|---------------------------------|
|---------------------------------|---------------------------------|
|---------------------------------|---------------------------------|
|-5-5-5-5-5-5-5-5-5-5-5-5-5-5-5-5-|-1-1-1-1-1-1-1-1-1-1-1-1-1-1-1-1-|


  S S S S S S S S S S S S S S S S   S S S S S S S S S S S S S S S S
|---------------------------------|-----------------------------------|
|---------------------------------|-----------------------------------|
|---------------------------------|-----------------------------------|
|-5-5-5-5-5-5-5-5-5-5-5-5-5-5-5-5-|-1-1-1-1-1-1-1-1-3-3-3-3-3-3-3-3---|


 Bass Break
 4/4
  S S S S S S S S S S S S S S S S   S S S S S S S S S S S S S S S S
|---------------------------------|---------------------------------|
|---------------------------------|---------------------------------|
|-7-7-7-7-7-7-7-7-7-7-7-7-7-7-7-7-|-5-5-5-5-5-5-5-5-5-5-5-5-5-5-5-5-|
|---------------------------------|---------------------------------|


  S S S S S S S S S S S S S S S S   S S S S S S S S S S S S S S S S
|---------------------------------|-----------------------------------|
|---------------------------------|-----------------------------------|
|-7-7-7-7-7-7-7-7-7-7-7-7-7-7-7-7-|-3-3-3-3-3-3-3-3-5-5-5-5-5-5-5-5---|
|---------------------------------|-----------------------------------|


  S S S S S S S S S S S S S S S S   S S S S S S S S S S S S S S S S
|---------------------------------|---------------------------------|
|---------------------------------|---------------------------------|
|-7-7-7-7-7-7-7-7-7-7-7-7-7-7-7-7-|-5-5-5-5-5-5-5-5-5-5-5-5-5-5-5-5-|
|---------------------------------|---------------------------------|


  S S S S S S S S S S S S S S S S   S S S S S S S S S S S S S S S S
|---------------------------------|------------------------------------|
|---------------------------------|------------------------------------|
|-7-7-7-7-7-7-7-7-7-7-7-7-7-7-7-7-|-3-3-3-3-3-3-3-3-5-5-5-5-5-5-5-5----|
|---------------------------------|------------------------------------|


  S S S S S S S S S S S S S S S S   S S S S S S S S S S S S S S S S
|---------------------------------|---------------------------------|
|---------------------------------|---------------------------------|
|-7-7-7-7-7-7-7-7-7-7-7-7-7-7-7-7-|-5-5-5-5-5-5-5-5-5-5-5-5-5-5-5-5-|
|---------------------------------|---------------------------------|


  S S S S S S S S S S S S S S S S   S S S S S S S S S S S S S S S S
|---------------------------------|------------------------------------|
|---------------------------------|------------------------------------|
|-7-7-7-7-7-7-7-7-7-7-7-7-7-7-7-7-|-3-3-3-3-3-3-3-3-5-5-5-5-5-5-5-5----|
|---------------------------------|------------------------------------|


  S S S S S S S S S S S S S S S S   S S S S S S S S S S S S S S S S
|---------------------------------|---------------------------------|
|---------------------------------|---------------------------------|
|-7-7-7-7-7-7-7-7-7-7-7-7-7-7-7-7-|-5-5-5-5-5-5-5-5-5-5-5-5-5-5-5-5-|
|---------------------------------|---------------------------------|


  S S S S S S S S S S S S S S S S   S S S S E S E E S Q
|---------------------------------|------------------------||
|---------------------------------|------------------------||
|-7-7-7-7-7-7-7-7-7-7-7-7-7-7-7-7-|-3-3-3-3-3-3-2-0--------||
|---------------------------------|------------------------||


 Outro-Chorus
 4/4
  S S S S S S S S S S S S S S S S   S S S S S S S S S S S S S S S S
|---------------------------------|---------------------------------|
|---------------------------------|---------------------------------|
|---------------------------------|-3-3-3-3-3-3-3-3-2-2-2-2-2-2-2-2-|
|-5-5-5-5-5-5-5-5-5-5-5-5-5-5-5-5-|---------------------------------|


  S S S S S S S S S S S S S S S S   S S S S S S S S S S S S S S S S
|---------------------------------|-----------------------------------|
|---------------------------------|-----------------------------------|
|---------------------------------|-3-3-3-3-3-3-3-3-2-2-2-2-2-2-2-2---|
|-5-5-5-5-5-5-5-5-5-5-5-5-5-5-5-5-|-----------------------------------|


  S S S S S S S S S S S S S S S S   S S S S S S S S S S S S S S S S
|---------------------------------|---------------------------------|
|---------------------------------|---------------------------------|
|---------------------------------|-3-3-3-3-3-3-3-3-2-2-2-2-2-2-2-2-|
|-5-5-5-5-5-5-5-5-5-5-5-5-5-5-5-5-|---------------------------------|


  S S S S S S S S S S S S S S S S   E E Q  E E Q    E E Q  H
|---------------------------------|---------------|-------------*|
|---------------------------------|---------------|-------------*|
|-3-3-3-3-3-3-3-3-2-2-2-2-2-2-2-2-|---------------|-------------*|
|---------------------------------|-3-3----3-3----|-3-3---------*|




--------------------------------------------------------------------------------


Duration Legend
---------------
W - whole; H - half; Q - quarter; E - 8th; S - 16th; T - 32nd; X - 64th; a - acciaccatura
+ - note tied to previous; . - note dotted; .. - note double dotted
Uncapitalized letters represent notes that are staccato (1/2 duration)
Irregular groupings are notated above the duration line
Duration letters will always appear directly above the note/fret number it represents the
duration for.  Duration letters with no fret number below them represent rests.  Multi-
bar rests are notated in the form Wxn, where n is the number of bars to rest for.  Low
melody durations appear below the staff

Tablature Legend
----------------
 h   - hammer-on
 p   - pull-off
 b   - bend
 pb  - pre-bend
 r   - bend release (if no number after the r, then release immediately)
 /\  - slide into or out of (from/to "nowhere")
 s   - legato slide
 S   - shift slide
 - natural harmonic
[n]  - artificial harmonic
n(n) - tapped harmonic
 ~   - vibrato
 tr  - trill
 T   - tap
 TP  - trem. picking
 PM  - palm muting
\n/  - tremolo bar dip; n = amount to dip
 \n  - tremolo bar down
 n/  - tremolo bar up
/n\  - tremolo bar inverted dip
 =   - hold bend; also acts as connecting device for hammers/pulls
 <> - volume swell (louder/softer)
 x   - on rhythm slash represents muted slash
 o   - on rhythm slash represents single note slash

Misc Legend
-----------
 |  - bar
||  - double bar
||o - repeat start
o|| - repeat end
*|  - double bar (ending)
 :  - bar (freetime)
 $  - Segno
 &  - Coda
Tempo markers -  = BPM(8/16=s8/s16), where s8 = swing 8ths, s16 = swing 16ths
            
Submit corrections

↑ Back to top | Tablatures and chords for acoustic guitar and electric guitar, ukulele, drums are parodies/interpretations of the original songs. You may use it for private study, scholarship, research or language learning purposes only