» » »

Hammerfall - Hearts On Fire Tabs

Artists:  A B C D E F G H I J K L M N O P Q R S T U V W X Y Z # 

Hearts On Fire Tabs

(ver. 3) Click to play this song!
Hammerfall
 Rating:
4/5 (4 votes)

 Hearts On Fire lessons Tabs too difficult? Try these video lessons and learn fast
 
                1 = D#
2 = A#
3 = F#
4 = C#
5 = G#
6 = D#


b = Bend
h = Hammer On
Intro RIff x2

--------------------------------------------------------------------------|
--------------------------------------------------------------------------|
--------------------------------------------------------------------------|
---------5------------------------5---------------3-------------5---------|
--5-5----------5--------6-3-5-----------5-------6---5---5-5-----------5---|
--3-3-3-3--3-3---3-3-3--------3-3---3-3---3-3-3---------3-3-3-3---3-3-----|

--------------------------------------------------------------------------|
--------------------------------------------------------------------------|
--------------------------------------------------------------------------|
-----------------7-7-----7-----7-7-7-5------------------------------------|
--------6-3-5----5-5-5-5-5-5-5-5-5-5-3------------------------------------|
--3-3-3-------------------------------------------------------------------|

Vers:

--------------------------------------------------------------------------|
--------------------------------------------------------------------------|
--------------------------------------------------------------------------|
--------------------------7-7-----7-----7-7-7-5---------------------------|
--5-5-----5-5-----5-5-----5-5-5-5-5-5-5-5-5-5-3---------------------------|
--3-3-----3-3-----3-3-----------------------------------------------------|

--------------------------------------------------------------------------|
--------------------------------------------------------------------------|
--------------------------------------------------------------------------|
----------------------------------------7-7-----7-----7-7-7-5-------------|
--5-5---------5-5-------5-5-------------5-5-5-5-5-5-5-5-5-5-3-------------|
--3-3-3-3-3-3-3-3-3-3-3-3-3-3-3-3-3-3-3-----------------------------------|

--------------------------------------------------------------------------|
--------------------------------------------------------------------------|
--------------------------------------------------------------------------|
--------------------------7-----------------------------------------------|
--7-------10------7-------5-----------------------------------------------|
--5-------8-------5-------------------------------------------------------|

Refräng:

-------------------------------------I------------------------------------|
-------------------------------------I------------------------------------|
-------------------------------------I------------------------------------|
-------------------------------------I------------------------------------|
--7---7-----7---7-----7------10-9----I---10-9-----------------------------|
--5-5-5-5-5-5-5-5-5-5-5-5-5--8--7--x3I---8--7-----------------------------|

Intro Riff x1.

Vers.

Refräng.


--------------------------------------------------------------------------|
---15----5-6--------------------------------------------------------------|
---------7-7----b17-b17-b17-b17-b17-15-ö17--------------------------------|
--------------------------------------------------------------------------|
--------------------------------------------------------------------------|
--------------------------------------------------------------------------|

----------------------------b15-15-13-------13----------------------------|
--15-ö15-------15----ö15--------------17-17----17-15----------------------|
---------17-17----17------------------------------------------------------|
--------------------------------------------------------------------------|
--------------------------------------------------------------------------|
--------------------------------------------------------------------------|


--13-17h13----------13-17h13----18h13----22h17---------17-22h17----20h17---|
-----------15----15----------15-------15-------18----18---------18------18-|
--------------14----------------------------------19-----------------------|
---------------------------------------------------------------------------|
---------------------------------------------------------------------------|
---------------------------------------------------------------------------|

--20h18h17-18h17h15-17h15h13-15h13h12-13h12h10-12h10h8-10h8h6-8h6h5-5-----|
--------------------------------------------------------------------------|
--------------------------------------------------------------------------|
--------------------------------------------------------------------------|
--------------------------------------------------------------------------|
--------------------------------------------------------------------------|

--15-b15-------------20h15---------------20h15----------------------------|
---------20-22-20-18------18-----20-----------18-20-18-17-18-17-15-17-----|
----------------------------19-17--19-17----------------------------------|
--------------------------------------------------------------------------|
--------------------------------------------------------------------------|
--------------------------------------------------------------------------|

--------------------------------------------------------------------------|
--17---17-15--15-17-18--18-20-20-18-18-17-17-15--17-17-15--15-17-18-17-15-|
------------17-------------------------------------------17---------------|
--------------------------------------------------------------------------|
--------------------------------------------------------------------------|
--------------------------------------------------------------------------|

Break:

--------------------------------------------------------------------------|
--------------------------------------------------------------------------|
--------------------------------------------------------------------------|
--9--------9--------9--------7--------9--9--9--9--------------------------|
--7--------7--------7--------5--------7--7--7--7--10-10-10-10-10-10-9-7---|
--------------------------------------------------8--8--8--8--8--8--7-5---|

Outro:

--------------------------------------------------------------------------|
--------------------------------------------------------------------------|
--------------------------------------------------------------------------|
--------------------------------------------------------------------------|
--5-5-----6-3-5-5-----6-3-5-5-----6-3-5-----------------------------------|
--3-3-3-3-----3-3-3-3-----3-3-3-3-----3-----------------------------------|
            
Submit corrections


        Hearts On Fire lessons Hard to play? Try these video lessons and learn fast Hearts On Fire lessons
        
↑ Back to top | Tablatures and chords for acoustic guitar and electric guitar, ukulele, drums are parodies/interpretations of the original songs. You may use it for private study, scholarship, research or language learning purposes only