Home » H » Halsey »

Halsey - Without Me Tabs

Artists:  A B C D E F G H I J K L M N O P Q R S T U V W X Y Z # 

Without Me Tabs

(ver. 3) Click to play this song!
Halsey
 Rating:
4.3/5 (22 votes)
                [Intro]
e|--------------0--------------------------------|
B|-----------1--1--1--------------0---3---1------|
G|--------2--------3-----------0------0---0------|  x2
D|-----2--------------------0--------------------|
A|--0--------------------------------------------|
E|-----------------------3-----------------------|
    Am                   G
 
[Verse]
e|--------------0--------------------------------|
B|-----------1--1--1--------------0---3---1------|
G|--------2--------3-----------0------0---0------|  Repeat the whole verse
D|-----2--------------------0--------------------|
A|--0--------------------------------------------|
E|-----------------------3-----------------------|
    Am                   G
 
[Pre-chorus]
e|--0------0------3------1------0------0------3------1--|
B|--1------1------0------3------1------1------0------1--|
G|--2------0------0------2------2------0------0------2--|
D|--2------2------0------0------2------2------0------3--|
A|--0------3------2-------------0------3------2------3--|
E|----------------3---------------------------3------1--|
    Am     C      G      Dm     Am     C      G      F
 
[Chorus]
e|--------------0--------------------------------|
B|-----------1--1--1--------------0---3---1------|
G|--------2--------3-----------0------0---0------|  Repeat the whole chorus
D|-----2--------------------0--------------------|
A|--0--------------------------------------------|
E|-----------------------3-----------------------|
    Am                   G 
 
[Post-Chorus]
e|--0--0-----0--0-----3--3-----1--1---|
B|--1--1-----1--1-----0--0-----3--3---|
G|--2--2-----0--0-----0--0-----2--2---|
D|--2--2-----2--2-----0--0-----0--0---|
A|--0--0-----3--3-----2--2------------|
E|--------------------3--3------------|
    Am(U)    C (U)    G (U)    Dm (U)
 
e|--0--0-----0--0-----3--3-----1--1---|
B|--1--1-----1--1-----0--0-----1--1---|
G|--2--2-----0--0-----0--0-----2--2---|
D|--2--2-----2--2-----0--0-----3--3---|
A|--0--0-----3--3-----2--2-----3--3---|
E|--------------------3--3-----1--1---|
    Am(U)    C (U)    G (U)    F  (U)
 
[Verse]
e|--------------0--------------------------------|
B|-----------1--1--1--------------0---3---1------|
G|--------2--------3-----------0------0---0------|  Repeat the whole verse
D|-----2--------------------0--------------------|
A|--0--------------------------------------------|
E|-----------------------3-----------------------|
    Am                   G
 
[Pre-chorus]
e|--0------0------3------1------0------0------3------1--|
B|--1------1------0------3------1------1------0------1--|
G|--2------0------0------2------2------0------0------2--|
D|--2------2------0------0------2------2------0------3--|
A|--0------3------2-------------0------3------2------3--|
E|----------------3---------------------------3------1--|
    Am     C      G      Dm     Am     C      G      F
 
[Chorus]
e|--------------0--------------------------------|
B|-----------1--1--1--------------0---3---1------|
G|--------2--------3-----------0------0---0------|  Repeat the whole chorus
D|-----2--------------------0--------------------|
A|--0--------------------------------------------|
E|-----------------------3-----------------------|
    Am                   G
 
[Post-chorus]
e|--0--0-----0--0-----3--3-----1--1---|
B|--1--1-----1--1-----0--0-----3--3---|
G|--2--2-----0--0-----0--0-----2--2---|
D|--2--2-----2--2-----0--0-----0--0---|
A|--0--0-----3--3-----2--2------------|
E|--------------------3--3------------|
    Am(U)    C (U)    G (U)    Dm (U)
 
e|--0--0-----0--0-----3--3-----1--1---|
B|--1--1-----1--1-----0--0-----1--1---|
G|--2--2-----0--0-----0--0-----2--2---|
D|--2--2-----2--2-----0--0-----3--3---|
A|--0--0-----3--3-----2--2-----3--3---|
E|--------------------3--3-----1--1---|
    Am(U)    C (U)    G (U)    F  (U)
 
[Pre-chorus]
e|--0------0------3------1------0------0------3------1--|
B|--1------1------0------3------1------1------0------1--|
G|--2------0------0------2------2------0------0------2--|
D|--2------2------0------0------2------2------0------3--|
A|--0------3------2-------------0------3------2------3--|
E|----------------3---------------------------3------1--|
    Am     C      G      Dm     Am     C      G      F
 
[Chorus]
e|--------------0--------------------------------|
B|-----------1--1--1--------------0---3---1------|
G|--------2--------3-----------0------0---0------|  Repeat the whole chorus
D|-----2--------------------0--------------------|
A|--0--------------------------------------------|
E|-----------------------3-----------------------|
    Am                   G
            
Submit corrections

↑ Back to top | Tablatures and chords for acoustic guitar and electric guitar, ukulele, drums are parodies/interpretations of the original songs. You may use it for private study, scholarship, research or language learning purposes only