» » »

Hail The Sun - Jane Doe Tabs

Artists:  A B C D E F G H I J K L M N O P Q R S T U V W X Y Z # 

Jane Doe Tabs

(ver. 2) Click to play this song!
Hail The Sun
 Rating:
4.4/5 (5 votes)

 Jane Doe lessons Tabs too difficult? Try these video lessons and learn fast
 
                [Intro]     
e|-----------------------------------------------------|
B|---0---0---0---0---0---0---0---0---0-------0---------|
G|---------------------------------------3-------3-----|
D|-----0-------0-------0-------0-------0-------0-------|
A|-2-------2-------------------------------------------|
E|-----------------3-------3-------2-------2-----------|

e|-----------------------------------------------------|
B|---0---0---0---0---0---0---0---0---------------------|
G|-7-------6-------4-------3---------------------------|
D|-----0-------0-------0-------0-----------------------|
A|-9-------7-------5-------4---------------------------|
E|-----------------------------------------------------|

[Pre-Chorus]
e|-----------------------------------------------------|
B|-----0-----0---------0-----0---------3-------3-------|
G|---3---3-------3---4---4-------4---6---6---6---6-----|
D|-----------------------------------------------------|
A|-----------------------------------------------------|
E|-2-------2---2---3-------3---3---5-------5-----------|

[Hook]
e|-------------7h9p7--------12+--------------5-----9----------10p9------------12p10----14-------------|
B|-----7h10-10-------10-8p7----7-5-7p6-----------------10----------10-----5-5-------12----14----------|
G|-7-6-------------------------6-6-----7-6h7---6/9---9----------------9---4-4----------11-------------|
D|-0-0-------------------------0--------------------------7-7-----------9-0-0-------------11----------|
A|-5-5-------------------------5--------------------------7-7-------------5-5-------------------------|
E|-7-7-------------------------7--------------------------5-5-------------3-3-------------------------|

[Verse]
e|-------------------------------------------------------------------------------------|
B|---7-------7-------7-------7-------7-------7-------7-------7-------------------------|
G|-------6-------6-------6-------6-------6-------6-------6-------6---------------------|
D|-------------------------------------------------------------------------------------|
A|-----5-------5-------5-------5-------5-------5-------5-------5-----------------------|
E|-7-------7-------7-------7-------7-------7-------7-------7---------------------------|

e|-------------------------------------------------------------------------------------|
B|---5-------5-------5-------5-------0---0---0---0---0---0---0---0---------------------|
G|-------4-------4-------4-------4-----0-------0-------0-------0-----------------------|
D|-------------------------------------------------------------------------------------|
A|-----4-------4-------4-------4-------------------------------------------------------|
E|-5-------5-------5-------5-------0-------3-------0-------3---------------------------|

[Pre-Chorus]
e|-------------------------------------------------|
B|---0-------0---0---0---0---0---0-----3-------3---|
G|-------3-----3-------4-------4-----6---6---6---6-|
D|-------------------------------------------------|
A|-------------------------------------------------|
E|-2---2---2-------3-------3-------5-------5-------|

[Chorus]
e|---------------------------------------------------------------------------------------------|
B|---0---0---0---0---0---0---0---0-----3-------3-------3-------3-----0-------0-----------------|
G|-7-------6-------4-------3---------4---4---4---4---6---6---6---6-------3-------3-------------|
D|-----0-------0-------0-------0---------------------------------------------------------------|
A|-9-------7-------5-------4-------------------------------------------------------------------|
E|---------------------------------3-------3-------5-------5-------2---2---2---2---------------|

e|-------------------------------------------------------------|
B|---7-------7-------------------------------------------------|
G|-------6-------6---------------------------------------------|
D|-------------------------------------------------------------|
A|-----5-------5-----------------------------------------------|
E|-7-------7---------------------------------------------------|            
Submit corrections


        Jane Doe lessons Hard to play? Try these video lessons and learn fast Jane Doe lessons
        
↑ Back to top | Tablatures and chords for acoustic guitar and electric guitar, ukulele, drums are parodies/interpretations of the original songs. You may use it for private study, scholarship, research or language learning purposes only