» » »

Gustavo Santaolalla - The Last Of Us - Main Theme Tabs

Artists:  A B C D E F G H I J K L M N O P Q R S T U V W X Y Z # 

The Last Of Us - Main Theme Tabs

(ver. 2) Click to play this song!
Gustavo Santaolalla
 Rating:
4.3/5 (22 votes)

 The Last Of Us - Main Theme  lessons Tabs too difficult? Try these video lessons and learn fast
 
                [Intro]

e|----------0---------0---------0---------0---------0---------0---------0---------0--|
B|-------0---------0---------0---------0---------0---------0---------0---------0-----|
G|---12--------12--------12--------12--------12--------12--------12--------12--------|
D|-----------------------------------------------------------------------------------|
A|-----------------------------------------------------------------------------------|
E|-----------------------------------------------------------------------------------|

[Verse 1]

e|----------0--------0---------0---------0--------0---------0---------0---------0----|
B|-------0--------0---------0---------0--------0---------0---------0---------0-------|
G|---12--------9--------14--------11-------12--------12--------12--------12----------|
D|-----------------------------------------------------------------------------------|
A|-----------------------------------------------------------------------------------|
E|-----------------------------------------------------------------------------------|

e|----------0--------0---------0---------0-----------0---------0---------0---------0----|
B|-------0--------0---------0---------0-----------0---------0---------0---------0-------|
G|---12--------9--------14--------11-------12/16--------16--------16--------16----------|
D|--------------------------------------------------------------------------------------|
A|--------------------------------------------------------------------------------------|
E|--------------------------------------------------------------------------------------|

e|----------0--------0---------0---------0--------0---------0---------0---------0----|
B|-------0--------0---------0---------0--------0---------0---------0---------0-------|
G|---12--------9--------14--------11-------12--------12--------12--------12----------|
D|-----------------------------------------------------------------------------------|
A|-----------------------------------------------------------------------------------|
E|-----------------------------------------------------------------------------------|

e|----------0---------0---------0--------0--------0--------0--------0-------0-|
B|-------0---------0---------0--------0--------0--------0--------0--------0---|
G|---15--------14--------12--------9------7/9--------9--------9--------9------|
D|----------------------------------------------------------------------------|
A|----------------------------------------------------------------------------|
E|----------------------------------------------------------------------------|

[Verse 2]

e|----10--------10-------10--------10-------9--------9--------9---------9----|
B|-----------0--------0---------0--------0--------0--------0---------0-------|
G|--------9--------9--------9---------9--------9--------9---------9----------|
D|---------------------------------------------------------------------------|
A|------------------------------------------0--------------------------------|
E|----0----------------------------------------------------------------------|

e|---------8--------8--------8--------8--------7--------7--------7--------7-|
B|------0--------0--------0--------0--------0--------0--------0--------0----|
G|---9--------9--------9---------9--------9--------9--------9-------9-------|
D|--------------------------------------------------------------------------|
A|---------------------------0----------------------------------------------|
E|---------------------------------------------0----------------------------|

e|---------8--------8--------8--------8--------7--------7--------7--------7-|
B|------0--------0--------0--------0--------0--------0--------0--------0----|
G|---9--------9--------9---------9--------9--------9--------9-------9-------|
D|--------------------------------------------------------------------------|
A|---------------------------0----------------------------------------------|
E|---------------------------------------------0----------------------------|

e|---------5--------5--------5--------5--------5-------3--------2--------0--------2--------3----|
B|------0--------0--------0--------0--------0--0----------1--------1--------1--------1-----1----|
G|---9--------5--------5---------5--------5----5-------------2--------2--------2--------2--2----|
D|----------------------------------------------------------------------------------------------|
A|---------0-----------------------------------0-------0-----------------------------------0----|
E|----------------------------------------------------------------------------------------------|

e|---3--------0--------0--------0--------0--------0--------0--------0---------|
B|------0--------0--------0--------0--------0--------0--------0--------0------|
G|---------4--------4--------4--------4--------4--------4--------4--------4---|
D|----------------------------------------------------------------------------|
A|----------------------------------------------------------------------------|
E|---0------------------------------------------------------------------------|

[Verse 3]

e|----------0--------0---------0---------0--------0---------0---------0---------0----|
B|-------0--------0---------0---------0--------0---------0---------0---------0-------|
G|---12--------9--------14--------11-------12--------12--------12--------12----------|
D|-----------------------------------------------------------------------------------|
A|-----------------------------------------------------------------------------------|
E|-----------------------------------------------------------------------------------|

e|----------0--------0---------0---------0-----------0---------0---------0---------0----|
B|-------0--------0---------0---------0-----------0---------0---------0---------0-------|
G|---12--------9--------14--------11-------12/16--------16--------16--------16----------|
D|--------------------------------------------------------------------------------------|
A|--------------------------------------------------------------------------------------|
E|--------------------------------------------------------------------------------------|

e|----------0--------0---------0---------0--------0---------0---------0---------0----|
B|-------0--------0---------0---------0--------0---------0---------0---------0-------|
G|---12--------9--------14--------11-------12--------12--------12--------12----------|
D|-----------------------------------------------------------------------------------|
A|-----------------------------------------------------------------------------------|
E|-----------------------------------------------------------------------------------|


e|----------0---------0---------0--------0--------0--------0--------0-------0-|
B|-------0---------0---------0--------0--------0--------0--------0--------0---|
G|---15--------14--------12--------9------7/9--------9--------9--------9------|
D|----------------------------------------------------------------------------|
A|----------------------------------------------------------------------------|
E|----------------------------------------------------------------------------|


[Verse 4]

     G   C   Bm
e|---0--------0---|
B|---0---0----3---|
G|---0---0----4---|
D|---2---0----4---|
A|---3---2----2---|
E|-------3--------|

     >             >             >             >        >        >
e|---0----0--0--0--0----0--0--0--0----0--0--0--0--0--0--0--0--0--0---|
B|---0----0--0--0--0----0--0--0--0----0--0--0--0--0--0--0--0--0--0---|
G|---0----0--0--0--0----0--0--0--0----0--0--0--0--0--0--0--0--0--0---|
D|---2----2--2--2--2----2--2--2--2----2--2--2--2--2--2--2--2--2--2---|
A|---3----3--3--3--3----3--3--3--3----3--3--3--3--3--3--3--3--3--3---|
E|-------------------------------------------------------------------|
The chords are G C G C Bm C Bm C

[Verse 5]

e|----------0---------0---------0---------0---------0---------0---------0---------0--|
B|-------0---------0---------0---------0---------0---------0---------0---------0-----|
G|---12--------12--------12--------12--------12--------12--------12--------12--------|
D|-----------------------------------------------------------------------------------|
A|-----------------------------------------------------------------------------------|
E|-----------------------------------------------------------------------------------|

e|----------0--------0---------0---------0--------0---------0---------0---------0----|
B|-------0--------0---------0---------0--------0---------0---------0---------0-------|
G|---12--------9--------14--------11-------12--------12--------12--------12----------|
D|-----------------------------------------------------------------------------------|
A|-----------------------------------------------------------------------------------|
E|-----------------------------------------------------------------------------------|

e|----------0--------0---------0---------0-----------0---------0---------0---------0----|
B|-------0--------0---------0---------0-----------0---------0---------0---------0-------|
G|---12--------9--------14--------11-------12/16--------16--------16--------16----------|
D|--------------------------------------------------------------------------------------|
A|--------------------------------------------------------------------------------------|
E|--------------------------------------------------------------------------------------|

e|----------0--------0---------0---------0--------0---------0---------0---------0----|
B|-------0--------0---------0---------0--------0---------0---------0---------0-------|
G|---12--------9--------14--------11-------12--------12--------12--------12----------|
D|-----------------------------------------------------------------------------------|
A|-----------------------------------------------------------------------------------|
E|-----------------------------------------------------------------------------------|

[Outro]

e|----------0---------0---------0--------0--------0--------0--------0-------0---|
B|-------0---------0---------0--------0--------0--------0--------0--------0-----|
G|---15--------14--------12--------9------7/9--------9--------9--------9--------|
D|------------------------------------------------------------------------------|
A|------------------------------------------------------------------------------|
E|------------------------------------------------------------------------------|

e|----------0---------0---------0--------0--------0--------0--------0-------0---|
B|-------0---------0---------0--------0--------0--------0--------0--------0-----|
G|---15--------14--------12--------9------7/9--------9--------9--------9--------|
D|------------------------------------------------------------------------------|
A|------------------------------------------------------------------------------|
E|------------------------------------------------------------------------------|

e|----------0---------0---------0--------0--------0--------0--------0-------0---0-|
B|-------0---------0---------0--------0--------0--------0--------0--------0-----0-|
G|---15--------14--------12--------9------7/9--------9--------9--------9--------9-|
D|--------------------------------------------------------------------------------|
A|--------------------------------------------------------------------------------|
E|------------------------------------------------------------------------------0-|            
Submit corrections


        The Last Of Us - Main Theme  lessons Hard to play? Try these video lessons and learn fast The Last Of Us - Main Theme  lessons
        
↑ Back to top | Tablatures and chords for acoustic guitar and electric guitar, ukulele, drums are parodies/interpretations of the original songs. You may use it for private study, scholarship, research or language learning purposes only