Home » G » Gustavo Santaolalla »

Gustavo Santaolalla - Wings Tabs

Artists:  A B C D E F G H I J K L M N O P Q R S T U V W X Y Z # 

Wings Tabs

(ver. 1) Click to play this song!
Gustavo Santaolalla

(Brockeback Mountain soundtrack)


e|-------1----0-------------------------------|
B|-0-1-3----------1-1-0---0-1-0---------------|
G|-0-0-0--------------0----------2---0---0-0--|
D|-------0-----------------------0---------0--|
A|---0-2------3-------------0--------3--------|
E|-3----------------3-----3---3------------3--|



e|-------1----0-------------------1---0-----------------1--0----------|
B|-0-1-3----------1-1-0---0-1-3-----------1-0---0-1-3----------1-1-0--|
G|-0-0-0--------------0---0-0-0-------------0---0-0-0--------------0--|
D|-0-----0------------------------0---------------------0-------------|
A|-2-0-2------3-------------0-2-------3-----------0-2------3----------|
E|-3----------------3-----3---------------3-----3----------------3----|



e|-------------------------|
B|-0--1--0-----------------|
G|------------2--0---0--0--|
D|------------0---------0--|
A|----3----------3---------|
E|-3-----3--------------3--|


This is my first tab. It's a mix of a few versions. I hope you like it!

Ciao!             JOMME
            
Submit corrections

↑ Back to top | Tablatures and chords for acoustic guitar and electric guitar, ukulele, drums are parodies/interpretations of the original songs. You may use it for private study, scholarship, research or language learning purposes only