Home » G » Gustavo Santaolalla »

Gustavo Santaolalla - Left Behind Together Tabs

Artists:  A B C D E F G H I J K L M N O P Q R S T U V W X Y Z # 

Left Behind Together Tabs

(ver. 1) Click to play this song!
Gustavo Santaolalla
Tuning: Standard

  e|-----------0-------------|-------------------------|-----------0-------------|-------------------------|
  B|--------0-----0-----0----|--------0-----0-----0----|--------0-----0-----0----|--------0-----0-----0----|
1 G|-----4-----------4-----4-|-----4-----4-----4-----4-|-----4-----------4-----4-|-----4-----4-----4-----4-|
  D|--4----------------------|--4----------------------|--4----------------------|--4----------------------|
  A|-------------------------|-------------------------|-------------------------|-------------------------|
  E|-------------------------|-------------------------|-------------------------|-------------------------|

  e|--------2-----2------------|-------------------------|--------0-----0-----0------|------------------------|
  B|-----------0-----0-----5-3-|--2-----------0-----0----|--0--------------------3-2-|--0-----0-----0-----0---|
2 G|--4--4--------------4------|-----4-----4-----4-----0-|--2--2-----2-----2---------|-----2-----2-----2-----0|
  D|--4------------------------|--4-----4----------------|--2------------------------|--2---------------------|
  A|---------------------------|-------------------------|---------------------------|------------------------|
  E|---------------------------|-------------------------|---------------------------|------------------------|

e|--------2-----2------------|-------------------------|--------0-----0------------|--------------------------|
B|--0--------0-----0-----5-3-|--2-----------------0----|--0-----------------0--3-2-|--0-----0-----0-----0-----|
G|--0--4--------------4------|--------4-----4--------0-|--2--2-----2-----2---------|-----2-----------2--------|
D|--4------------------------|--4--4-----4-----4-------|--2------------------------|--2--------2--------------|
A|---------------------------|-------------------------|---------------------------|--------------------------|
E|---------------------------|-------------------------|---------------------------|-----------------------0-2|

e|-------------------------|-------------------------|-------------------------|---------------------------|
B|--------3-----3-----2----|--020---------0-----2----|--3-----------------3----|--2-----------------2------|
G|-----------------0-----0-|--------2--------0-----0-|-----0-----------0-------|--------0-----0------------|
D|-----0-----0-------------|-----0-----0-------------|--------4--~--~--------4-|-----4-----4-----4-----4-5-|
A|-------------------------|-------------------------|--2----------------------|--0------------------------|
E|--3----------------------|-------------------------|-------------------------|---------------------------|

e|-------------------------|-------------------------|--------------0----------|--------------|-------------|
B|--0--------0-----------0-|-----------0-------------|-----------0-----------0-|--------------|-------------|
G|--0-----0-----0-----0----|--------0-----0-----0--0-|--------0-----------0----|--3--~--~--~--|--~--~--~--~-|
D|--0--0-----------0-------|-----0--------0--0-------|-----4-----------4-------|--4--~--~--~--|--~--~--~--~-|
A|-------------------------|-------------------------|-------------------------|--------------|-------------|
E|--3----------------------|--3----------------------|--2----------------------|--2--~--~--~--|--~--~--~--~-|

                                               Replay 1 & 2

e|--------2-----2------------|-------------------------|--------0-----0------------|--------0-----------------|
B|--0--------0-----0-----5-3-|--2-----------------0----|--0-----------------0--3-2-|--0--------0-----0--------|
G|--0--4--------------4------|-----4-----4-----4-----0-|--2--2-----2-----2---------|-----2--------4-----2-----|
D|--4------------------------|--4-----4-----4----------|--2------------------------|--2-----------------------|
A|---------------------------|-------------------------|---------------------------|--------------------------|
E|---------------------------|-------------------------|---------------------------|-----------------------0-2|

e|-------------------------|-------------------------|-------------------------|---------------------------|
B|--------3-----3-----2----|--020---------0-----2----|--3-----------3-----3----|--2--------2--------2------|
G|-----------------0-----0-|--------2--------0-----0-|-----0-----0-----0-------|--------0-----0------------|
D|-----0-----0-------------|-----0-----0-------------|--------4--------------4-|-----4-----------4-----4-5-|
A|-------------------------|-------------------------|--2----------------------|--0------------------------|
E|--3----------------------|-------------------------|-------------------------|---------------------------|

e|-------------------------|--------------3----------|--------------------0----|--------------|-------------|
B|--0--------0-----------0-|-----------0-----0-------|-----------0-------------|--------------|-------------|
G|--0-----0-----0-----0----|--------0-----------0----|--------0-----0----------|--3--~--~--~--|--~--~--~--~-|
D|--0--0-----------0-------|-----0-----------------0-|-----4-----------4-----4-|--4--~--~--~--|--~--~--~--~-|
A|-------------------------|-------------------------|-------------------------|--------------|-------------|
E|--3----------------------|--3----------------------|--2--2-------------------|--2--~--~--~--|--~--~--~--~-|

e|--------2--~--2--~--~------|-------------------------|--------0-----0--~--~------|-------------------------|
B|--0--~-----------------5-3-|--2-----------0--~--~--0-|--0--------0-----------3-2-|--0--~--------0-----0----|
G|---------------------------|-----4-------------------|-----2---------------------|--------4--~-----2-----0-|
D|--4--~---------------------|--4-----4--~-------------|--2------------------------|--2--~-------------------|
A|---------------------------|-------------------------|---------------------------|-------------------------|
E|---------------------------|-------------------------|---------------------------|-------------------------|

e|--------2-----2------------|-------------------------|--------0-----0--~---------|
B|--0--------0-----0-----5-3-|--2-----------0-----0----|--0--------------------3-2-|
G|--4--4--------------4------|-----4-----4-----4-----0-|-----2-----2--------2------|
D|--4------------------------|--4-----4----------------|--2------------------------|
A|---------------------------|-------------------------|---------------------------|
E|---------------------------|-------------------------|---------------------------|

e|---------------------------|-------------------------|-------------------------|-------------|-------------|
B|--0-----0-----0-----0------|--------3-----3-----2----|--020---------0-----2----|--3--~--~--~-|--~--~--~--~-|
G|-----4-----2-----2---------|--------------0----------|--------2--------0-----0-|--4--~--~--~-|--~--~--~--~-|
D|--2------------------------|-----0-----0-----0-----0-|-----0-----0-------------|--4--~--~--~-|--~--~--~--~-|
A|---------------------------|-------------------------|-------------------------|--2--~--~--~-|--~--~--~--~-|
E|-----------------------0-2-|--3----------------------|-------------------------|-------------|-------------|            
Submit corrections

↑ Back to top | Tablatures and chords for acoustic guitar and electric guitar, ukulele, drums are parodies/interpretations of the original songs. You may use it for private study, scholarship, research or language learning purposes only