Home » G » Groovie Ghoulies »

Groovie Ghoulies - Do The Bat Tabs

Artists:  A B C D E F G H I J K L M N O P Q R S T U V W X Y Z # 

Do The Bat Tabs

(ver. 1) Click to play this song!
Groovie Ghoulies
Intro
  C5      Bb       F5      C5
  1 . 2 . 3 . 4 .  1 . 2 . 3 . 4 .
e|----------------|---------------|
B|----------------|---------------|
G|5-5-----3-3-----|--------5-5----|
D|5-5-----3-3-----|3-3-----5-5----|
A|3-3-----1-1-----|3-3-----3-3----|
E|----------------|1-1------------|
 
  F5      Eb5
e|----------------|
B|----------------|
G|--------8-8-----|
D|3---3-3-8-8-----|
A|3---3-3-6-6-----|
E|1---1-1---------|
  
  C5                       Bb5 F5
e|----------------|---------------|
B|----------------|---------------|
G|5---5-5-5-5-5-5-|5-5-5-5-3------|
D|5---5-5-5-5-5-5-|5-5-5-5-3---3--|
A|3---3-3-3-3-3-3-|3-3-3-3-1---3--|
E|----------------|------------1--|

Verse
     C5                       Bb5 F5
     1 . 2 . 3 . 4 .  1 . 2 . 3 . 4 .
e||------------------|-----------------||
B||------------------|-----------------||
G||o-5---5-5-5-5-5-5-|5-5-5-5-3-------o|| 3x
D||o-5---5-5-5-5-5-5-|5-5-5-5-3---3---o||
A||--3---3-3-3-3-3-3-|3-3-3-3-1---3----||
E||------------------|------------1----||
   I took my baby out for bloody marys...

  C5
e|----------------|---------------|
B|----------------|---------------|
G|5---5-5-5-5-5-5-|5-5-5-5-5-5-5-5|
D|5---5-5-5-5-5-5-|5-5-5-5-5-5-5-5|
A|3---3-3-3-3-3-3-|3-3-3-3-3-3-3-3|
E|----------------|---------------|

Pre-Chorus
  G5
  1 . 2 . 3 . 4 .  1 . 2 . 3 . 4 .
e|----------------|---------------|
B|----------------|---------------|
G|----------------|---------------|
D|5---5-5-5-5-5-5-|5-5-5-5-5-5-5-5|
A|5---5-5-5-5-5-5-|5-5-5-5-5-5-5-5|
E|3---3-3-3-3-3-3-|3-3-3-3-3-3-3-3|
  We did the bat. I did it with my baby

  Bb5
e|----------------|---------------|
E|----------------|---------------|
G|3---3-3-3-3-3-3-|3-3-3-3-3-3-3-3|
D|3---3-3-3-3-3-3-|3-3-3-3-3-3-3-3|
A|1---1-1-1-1-1-1-|1-1-1-1-1-1-1-1|
E|----------------|---------------|
  I like to drive her crazy
  G5
e|----------------|---------------|
B|----------------|---------------|
G|----------------|---------------|
D|5---5-5-5-5-5-5-|5-5-5-5-5-5-5-5|
A|5---5-5-5-5-5-5-|5-5-5-5-5-5-5-5|
E|3---3-3-3-3-3-3-|3-3-3-3-3-3-3-3|
  Me and my bloody baby

Chorus
  F5      Eb5
  1 . 2 . 3 . 4 .
e|----------------|
B|----------------|
G|--------8-8-----|
D|3---3-3-8-8-----|
A|3---3-3-6-6-----|
E|1---1-1---------|
  Flap around and to the

  C5                       Bb5 F5
e|----------------|---------------|
B|----------------|---------------|
G|5---5-5-5-5-5-5-|5-5-5-5-3------|
D|5---5-5-5-5-5-5-|5-5-5-5-3---3--|
A|3---3-3-3-3-3-3-|3-3-3-3-1---3--|
E|----------------|------------1--|
  bat

Verse
     C5                       Bb5 F5
     1 . 2 . 3 . 4 .  1 . 2 . 3 . 4 .
e||------------------|-----------------||
B||------------------|-----------------||
G||o-5---5-5-5-5-5-5-|5-5-5-5-3-------o|| 3x
D||o-5---5-5-5-5-5-5-|5-5-5-5-3---3---o||
A||--3---3-3-3-3-3-3-|3-3-3-3-1---3----||
E||------------------|------------1----||
   Me and my baby learned to do the bat upside down and in the mud...

  C5
e|----------------|---------------|
B|----------------|---------------|
G|5---5-5-5-5-5-5-|5-5-5-5-5-5-5-5|
D|5---5-5-5-5-5-5-|5-5-5-5-5-5-5-5|
A|3---3-3-3-3-3-3-|3-3-3-3-3-3-3-3|
E|----------------|---------------|

Pre-Chorus
  G5
  1 . 2 . 3 . 4 .  1 . 2 . 3 . 4 .
e|----------------|---------------|
B|----------------|---------------|
G|----------------|---------------|
D|5---5-5-5-5-5-5-|5-5-5-5-5-5-5-5|
A|5---5-5-5-5-5-5-|5-5-5-5-5-5-5-5|
E|3---3-3-3-3-3-3-|3-3-3-3-3-3-3-3|
  We do the bat. I do it with my baby

  Bb5
e|----------------|---------------|
E|----------------|---------------|
G|3---3-3-3-3-3-3-|3-3-3-3-3-3-3-3|
D|3---3-3-3-3-3-3-|3-3-3-3-3-3-3-3|
A|1---1-1-1-1-1-1-|1-1-1-1-1-1-1-1|
E|----------------|---------------|
  I like to drive her crazy
  G5
e|----------------|---------------|
B|----------------|---------------|
G|----------------|---------------|
D|5---5-5-5-5-5-5-|5-5-5-5-5-5-5-5|
A|5---5-5-5-5-5-5-|5-5-5-5-5-5-5-5|
E|3---3-3-3-3-3-3-|3-3-3-3-3-3-3-3|
  Me and my bloody baby

Chorus
  F5     Eb5
  1 . 2 . 3 . 4 .
e|----------------|
B|----------------|
G|--------8-8-----|
D|3---3-3-8-8-----|
A|3---3-3-6-6-----|
E|1---1-1---------|
  Flap around and to the

  C5
e|----------------|---------------|
B|----------------|---------------|
G|5---5-5-5-5-5-5-|5-5-5-5-5-5-5-5|
D|5---5-5-5-5-5-5-|5-5-5-5-5-5-5-5|
A|3---3-3-3-3-3-3-|3-3-3-3-3-3-3-3|
E|----------------|---------------|
  Bat              (Alright, alright)

Bridge
  
  Bb5   F5         Bb5   F5
  1 . 2 . 3 . 4 .  1 . 2 . 3 . 4 .
e|----------------|---------------|
B|----------------|---------------|
G|3---------------|3--------------|
D|3-----3---------|3-----3--------|
A|1-----3---------|1-----3--------|
E|------1---------|------1--------|

  Bb5   F5    Eb5 C5
e|----------------|---------------|
B|----------------|---------------|
G|3-----------8-5-|5---5-5-5-5-5-5|
D|3-----3-----8-5-|5---5-5-5-5-5-5|
A|1-----3-----8-3-|3---3-3-3-3-3-3|
E|------1---------|---------------|

  Bb5   F5         Bb5   F5
e|----------------|---------------|
B|----------------|---------------|
G|3---------------|3--------------|
D|3-----3---------|3-----3--------|
A|1-----3---------|1-----3--------|
E|------1---------|------1--------|

  Bb5   F5    Eb5 C5
e|----------------|
B|----------------|
G|3-----------8-5-|
D|3-----3-----8-5-|
A|1-----3-----6-3-|
E|------1---------|

  C5                       Bb5 F5
e|----------------|---------------|
B|----------------|---------------|
G|5---5-5-5-5-5-5-|5-5-5-5-3------|
D|5---5-5-5-5-5-5-|5-5-5-5-3---3--|
A|3---3-3-3-3-3-3-|3-3-3-3-1---3--|
E|----------------|------------1--|

Verse
     C5                       Bb5 F5
     1 . 2 . 3 . 4 .  1 . 2 . 3 . 4 .
e||------------------|-----------------||
B||------------------|-----------------||
G||o-5---5-5-5-5-5-5-|5-5-5-5-3-------o|| 3x
D||o-5---5-5-5-5-5-5-|5-5-5-5-3---3---o||
A||--3---3-3-3-3-3-3-|3-3-3-3-1---3----||
E||------------------|------------1----||
   Now in my trap I found another human...

  C5
e|----------------|---------------|
B|----------------|---------------|
G|5---5-5-5-5-5-5-|5-5-5-5-5-5-5-5|
D|5---5-5-5-5-5-5-|5-5-5-5-5-5-5-5|
A|3---3-3-3-3-3-3-|3-3-3-3-3-3-3-3|
E|----------------|---------------|

Pre-Chorus
  G5
  1 . 2 . 3 . 4 .  1 . 2 . 3 . 4 .
e|----------------|---------------|
B|----------------|---------------|
G|----------------|---------------|
D|5---5-5-5-5-5-5-|5-5-5-5-5-5-5-5|
A|5---5-5-5-5-5-5-|5-5-5-5-5-5-5-5|
E|3---3-3-3-3-3-3-|3-3-3-3-3-3-3-3|
  They did the bat. Then do it with your baby.

  Bb5
e|----------------|---------------|
E|----------------|---------------|
G|3---3-3-3-3-3-3-|3-3-3-3-3-3-3-3|
D|3---3-3-3-3-3-3-|3-3-3-3-3-3-3-3|
A|1---1-1-1-1-1-1-|1-1-1-1-1-1-1-1|
E|----------------|---------------|
  And you can drive her crazy

  G5
e|----------------|---------------|
B|----------------|---------------|
G|----------------|---------------|
D|5---5-5-5-5-5-5-|5-5-5-5-5-5-5-5|
A|5---5-5-5-5-5-5-|5-5-5-5-5-5-5-5|
E|3---3-3-3-3-3-3-|3-3-3-3-3-3-3-3|
  You and your bloody baby

Chorus
  1 . 2 . 3 . 4 .  1 . 2 . 3 . 4 . 
  F5      Eb5         C5
e||------------------|------------------||
B||------------------|------------------||
G||o---------8-8-----|5---5-5-5-5-5-5--o|| 3x
D||o-3---3-3-8-8-----|5---5-5-5-5-5-5--o||
A||--3---3-3-6-6-----|3---3-3-3-3-3-3---||
E||--1---1-1---------|------------------||
   Flap around and do the bat

  F5      Eb5
e|----------------|----------------|
B|----------------|----------------|
G|--------8-8-----|----------------|
D|3---3-3-8-8-----|----------------|
A|3---3-3-6-6-----|----------------|
E|1---1-1---------|----------------|

Outro
  C5      Bb       F5      C5
  1 . 2 . 3 . 4 .  1 . 2 . 3 . 4 .
e|----------------|---------------|
B|----------------|---------------|
G|5-------3-3-----|--------5-5----|
D|5-------3-3-----|3-3-----5-5----|
A|3-------1-1-----|3-3-----3-3----|
E|----------------|1-1------------|

  F5      Eb5      C5
e|----------------|---------------|
B|----------------|---------------|
G|--------8-8-----|5--------------|
D|3---3-3-8-8-----|5--------------|
A|3---3-3-6-6-----|3--------------|
E|1---1-1---------|---------------|
            
Submit corrections

↑ Back to top | Tablatures and chords for acoustic guitar and electric guitar, ukulele, drums are parodies/interpretations of the original songs. You may use it for private study, scholarship, research or language learning purposes only