» » »

Greyhoundz - Your Puppet And Clown Tabs

Artists:  A B C D E F G H I J K L M N O P Q R S T U V W X Y Z # 

Your Puppet And Clown Tabs

(ver. 2) Click to play this song!
Greyhoundz
 Rating:
3.4/5 (5 votes)

 Your Puppet And Clown lessons Tabs too difficult? Try these video lessons and learn fast
 
                Info:text/call me 09193216020
legend:
. palm mute
p pull 
h hammer on
\ slide down
/ slide up
<> artificial harmonics 
() natural harmonics
~ let ring

tune drop D

Intro:(guitar II) with pedal pitch
E|--7-7--------------|
B|------7-7-8-8------|
G|--------------7-7--|
D|-------------------|(2x) 
A|-------------------|
D|-------------------|

the enter guitar II:(clean heavy sound)
E|--7-7--------------|
B|------7-7-8-8------|
G|--------------7-7--|
D|-------------------|
A|-------------------|
D|-------------------|

E|--7-7--------------------------|
B|------7-7-8-8-----7-7----------|
G|--------------7-7-----6-6-7----|
D|----------------------------7--|
A|-------------------------------|
D|-------------------------------|

when 3rd times is played by guitarII press thw wah pedal

stanza(guitar II play tha wah pedal)
stanza:guitar II)
                                 v-press pedal pitch
E|--7-7--------------------------12-12--------------------------------------|
B|------7-7-8-8-----7-7----------------12-12-13-13-------12-12--------------|
G|--------------7-7-----6-6-7----------------------12-12-------11-11-12-----|
D|----------------------------7-----------------------------------------12--|
A|--------------------------------------------------------------------------|
D|--------------------------------------------------------------------------|

refrain: hold me...(clean heavy guitar sound)
E|-----------------|-------------------|
B|--7--------------|--7-7--------------|
G|----6-6-7-7-4-4--|------6-6-7-7-4-4--|(8x)
D|-----------------|-------------------|
A|-----------------|-------------------|
D|-----------------|-------------------|
    . . . . .         . . . . . . 

Lift me up then let go...
E|------------------------------------------------|
B|------------------------------------------------|
G|------------------------------------------------|
D|--9-----9---9-9---9-----------------------------|
A|--9-----9---9-9---9-9p0-10-----10---10-10---10--|
D|--9-0-0-9-0-9-9-0-9-9p0-10-0-0-10-0-10-10-0-10--|
      . .   .     .          . .    .       .
E|----------------------|--------|       ------|
B|----------------------|--------|       ------|
G|----------------------|--------|repeat ------|
D|--12\-----12\---12\~~-|--10-9--|       --13--|
A|--12\-----12\---12\~~-|--10-9--|       --13--|
D|--12\-0-0-12\-0-12\~~-|--10-9--|       --13--|

watch me fall(and suffer)
watch me need(and suffer)
watch me bleed(and enjoy enjoy as you)
E|-----------------------------------|
B|-----------------------------------|
G|-----------------------------------|
D|----2---2-3p2---2~~---2---2-3---2--|(4x)
A|----2---2-3p2---2~~---2---2-3---2--|
D|--0-2-0-2-3p2-0-2~~-0-2-0-2-3-0-2--|
    .   .       .     .   .     .

step on my(3x)heart coz you
you know I(3x)I'd smile
strangle my(3x) neck coz you
you know I(3x) still laugh
E|-----------------------------------|
B|-----------------------------------|
G|-----------------------------------|
D|----2---2---2---2---2---2---2------|(4x)
A|----2---2---2---2---2---2---2-2/3--|
D|--0-2-0-2-0-2-0-2-0-2-0-2-0-2------|
    .   .   .   .   .   .   .
Interlude:
E|-------------------7-7--------------|
B|--7-7------------------6-6-7-7------|
G|------6-6-7-7------------------7-7--|(repeat)
D|--------------7-7-------------------|
A|------------------------------------|
D|------------------------------------|

(repeat stanza W/out wah)
InterludeII:
E|----------------------------------|
B|---------------------------4h5p4--|
G|----------------2-4--2-4-5--------|(4x) 
D|--------2---2-4-------------------|
A|--2-4-5---4-----------------------|
D|----------------------------------|
    . . . . . . . . .  . . . 
when 2x is done play it without palm mute

I thought you patch my hole but you even dug a deeper wound
E|---------||---------------------|
B|---------||---------------------|
G|---------||---------------------|
D|--7-7-7--||--10p9---10p9---7-9--|(8x)
A|--5-5-5--||--10p9---10p9---7-9--|
D|--0-0-0--||--10p9-0-10p9-0-7-9--|
                    .      .
Im your (2x) puppet, clown
E|-----------------|
B|-----------------|
G|-----------------|
D|--10p9-10p9-7-9--|(8x)
A|--10p9-10p9-7-9--|
D|--10p9-10p9-7-9--|

(repeat lift me up)
(repeat step on my)
(repeat Im your puppet)
(repeat Riff I)

end
            
Submit corrections


        Your Puppet And Clown lessons Hard to play? Try these video lessons and learn fast Your Puppet And Clown lessons
        
↑ Back to top | Tablatures and chords for acoustic guitar and electric guitar, ukulele, drums are parodies/interpretations of the original songs. You may use it for private study, scholarship, research or language learning purposes only