» » »

Gregory And The Hawk - Boats And Birds Tabs

Artists:  A B C D E F G H I J K L M N O P Q R S T U V W X Y Z # 

Boats And Birds Tabs

(ver. 3) Click to play this song!
Gregory And The Hawk
 Rating:
3.4/5 (5 votes)

 Boats And Birds lessons Tabs too difficult? Try these video lessons and learn fast
 
                Intro:
e----------------------------------->
B----11------11------11------11----->
G----------------------------------->
D-------8-------8-------8-------8--->
A-10------10------------------------>
E-----------------11------11-------->

Verse 1:
e-10------10----------------------10------10----------------------->
B----11------11------11------11------11------11------11------11---->
G------------------------------------------------------------------>
D-------8-------8-------8-------8-------8-------8-------8-------8-->
A-10------10----------------------10------10----------------------->
E-----------------11------11----------------------11------11------->
If you’ll be my star I'll be your sky you can hide underneath me and come
out at night

e-10------10------------------------------------------------------->
B----11------11------11------11------11------11------11------11---->
G------------------------------------------------------------------>
D-------8-------8-------8-------8-------8-------8-------8-------8-->
A-10------10----------------------10-------8----------------------->
E-----------------11------11----------------------11------11------->
when I turn jet black and you show off your light I live to let you shine

e----------------------------------->
B-----11------11------11------11---->
G----------------------------------->
D--------8-------8-------8-------8-->
A--10-------8----------------------->
E------------------11------11------->
I live to let you shine

Chorus 1:
e---1-----1-----1-----1-----1-----1-----1-----1--->
B------------------------------------------------->
G-----3-----3-----3-----3-----3-----3-----3-----3->
D-------------1-----1-----------------1-----1----->
A-------1-----------------------1----------------->
E-1-----------------------1----------------------->
but you can skyrocket away from me and never come back if you find another
galaxy 

e---1-----1-----1-----1-----1-----1-----1-----1-----1-----1--->
B------------------------------------------------------------->
G-----3-----3-----3-----3-----3-----3-----3-----3-----3-----3->
D-------------1-----1-----------------1-----1-----1-----1----->
A-------1-----------------------1-----1-----1~---------------->
E-1-----------------------1----------------------------------->
far from here with more room to fly just leave me your stardust to remember
you by 


Verse 2:
e-10------10----------------------10------10----------------------->
B----11------11------11------11------11------11------11------11---->
G------------------------------------------------------------------>
D-------8-------8-------8-------8-------8-------8-------8-------8-->
A-10------10----------------------10------10----------------------->
E-----------------11------11----------------------11------11------->
if you’ll be my boat I'll be your sea a depth of pure blue just to probe
curiosity

e-10------10------------------------------------------------------->
B----11------11------11------11------11------11------11------11---->
G------------------------------------------------------------------>
D-------8-------8-------8-------8-------8-------8-------8-------8-->
A-10------10----------------------10-------8----------------------->
E-----------------11------11----------------------11------11------->
ebbing and flowing and pushed by a breeze I live to make you free

e----------------------------------->
B-----11------11------11------11---->
G----------------------------------->
D--------8-------8-------8-------8-->
A--10-------8----------------------->
E------------------11------11------->
I live to make you free

Chorus 2:
e---1-----1-----1-----1-----1-----1-----1-----1--->
B------------------------------------------------->
G-----3-----3-----3-----3-----3-----3-----3-----3->
D-------------1-----1-----------------1-----1----->
A-------1-----------------------1----------------->
E-1-----------------------1----------------------->
but you can set sail to the west if you want to and past the horizon till I
can't even see you

e---1-----1-----1-----1-----1-----1-----1-----1-----1-----1--->
B------------------------------------------------------------->
G-----3-----3-----3-----3-----3-----3-----3-----3-----3-----3->
D-------------1-----1-----------------1-----1-----1-----1----->
A-------1-----------------------1-----1-----1~---------------->
E-1-----------------------1----------------------------------->
far from here where the beaches are wide just leave me your wake to
remember you by 

Fill:
e---5-----3-------1---1-----5-----3-------1-1----->
B------------------------------------------------->
G-----3-----3---3-------3-----3-----3---3-----3--->
D-0-----1-----3~----------0-----------3~--------3->
A-------------1-----1-----------3-----1----------->
E------------------------------------------------->

e---5-----3-------1-1-------5-----3-------1-1----->
B------------------------------------------------->
G-----3-----3---3-----3-------3-----3---3-----3--->
D-0-----1-----3~--------3-0-----------3~--------3->
A-------------1-----------------3-----1-----0----->
E------------------------------------------------->

---REPEAT VERSE 1
---REPEAT CHORUS 1

outro:
e---1-----1-----1-----1-----6-----6--------------->
B------------------------------------------------->
G-----3-----3-----3-----3-----3-----3------------->
D-------------1-----1-----------5-----5~---------->
A-0-----1----------------------------------------->
E-------------------------3~---------------------->
Stardust to remember you by
            
Submit corrections


        Boats And Birds lessons Hard to play? Try these video lessons and learn fast Boats And Birds lessons
        
↑ Back to top | Tablatures and chords for acoustic guitar and electric guitar, ukulele, drums are parodies/interpretations of the original songs. You may use it for private study, scholarship, research or language learning purposes only