» » »

Gregory And The Hawk - Boats And Birds Tabs

Artists:  A B C D E F G H I J K L M N O P Q R S T U V W X Y Z # 

Boats And Birds Tabs

(ver. 2) Click to play this song!
Gregory And The Hawk
 Rating:
3.4/5 (11 votes)

 Boats And Birds lessons Tabs too difficult? Try these video lessons and learn fast
 
                CAPO on 3rd fret.

Verse:
E)-------------------------------------------------------|
B)--------8------------8-----------8------------8--------|
G)-----------0------------0-----------0------------0-----|
D)-------------------------------------------------------|
A)----7------------7-------------------------------------|
E)-----------------------------8------------8------------|

E)-------------------------------------------------------|
B)--------8------------8-----------8------------8--------|
G)-----------0------------0-----------0------------0-----|
D)-------------------------------------------------------|
A)----7------------7-------------------------------------|
E)-----------------------------8------------8------------|

           If you'll be my star, I'll be your sky
E)-------------------------------------------------------|
B)--------8------------8-----------8------------8--------|
G)-----------0------------0-----------0------------0-----|
D)-------------------------------------------------------|
A)----7------------7-------------------------------------|
E)-----------------------------8------------8------------|

     You can hide underneath me and come out at night
E)-------------------------------------------------------|
B)--------8------------8-----------8------------8--------|
G)-----------0------------0-----------0------------0-----|
D)-------------------------------------------------------|
A)----7------------7-------------------------------------|
E)-----------------------------8------------8------------|

    When I turn jet black, and you show off your light
E)-------------------------------------------------------|
B)--------8------------8-----------8------------8--------|
G)-----------0------------0-----------0------------0-----|
D)-------------------------------------------------------|
A)----7------------7-------------------------------------|
E)-----------------------------8------------8------------|

                  I live to let you shine
E)-------------------------------------------------------|
B)--------8------------8-----------8------------8--------|
G)-----------0------------0-----------0------------0-----|
D)-------------------------------------------------------|
A)----7------------5-------------------------------------|
E)-----------------------------8------------8------------|

                  I live to let you shine
E)-------------------------------------------------------|
B)--------8------------8-----------8------------8--------|
G)-----------0------------0-----------0------------0-----|
D)-------------------------------------------------------|
A)----7------------5-------------------------------------|
E)-----------------------------8------------8------------|

Chorus:
           But you can skyrocket away, from me
E)-------------------------------------------------------|
B)--------3------------3-----------3------------3--------|
G)-----------0------------0-----------0------------0-----|
D)-------------------------------------------------------|
A)------------------------------3-----------3------------|
E)----2------------3-------------------------------------|

     And never come back if you find another galaxy
E)-------------------------------------------------------|
B)--------3------------3-----------3------------3--------|
G)-----------0------------0-----------0------------0-----|
D)-------------------------------------------------------|
A)------------------------------3-----------3------------|
E)----2------------3-------------------------------------|

      Far from here, where there's more room to fly
E)-------------------------------------------------------|
B)--------3------------3-----------3------------3--------|
G)-----------0------------0-----------0------------0-----|
D)-------------------------------------------------------|
A)------------------------------3-----------3------------|
E)----2------------3-------------------------------------|

     Just leave me your startdust to remember you by
E)-------------------------------------------------------|
B)--------3------------3-----------3------------3--------|
G)-----------0------------0-----------0------------0-----|
D)-------------------------------------------------------|
A)------------------------------3-----------3------------|
E)----2------------3-------------------------------------|


E)-------------------------------------------------------|
B)--------3------------3---------------------------------|
G)-----------0------------0------------------------------|
D)-------------------------------------------------------|
A)----3------------3-------------------------------------|
E)-------------------------------------------------------|

Verse:
         If you'll be my boat, I'll be your sea
E)-------------------------------------------------------|
B)--------8------------8-----------8------------8--------|
G)-----------0------------0-----------0------------0-----|
D)-------------------------------------------------------|
A)----7------------7-------------------------------------|
E)-----------------------------8------------8------------|

     The depth of pure blue just to probe curiosity
E)-------------------------------------------------------|
B)--------8------------8-----------8------------8--------|
G)-----------0------------0-----------0------------0-----|
D)-------------------------------------------------------|
A)----7------------7-------------------------------------|
E)-----------------------------8------------8------------|

       Ebbing and flowing and pushed by a breeze
E)-------------------------------------------------------|
B)--------8------------8-----------8------------8--------|
G)-----------0------------0-----------0------------0-----|
D)-------------------------------------------------------|
A)----7------------7-------------------------------------|
E)-----------------------------8------------8------------|

                I live to make you free
E)-------------------------------------------------------|
B)--------8------------8-----------8------------8--------|
G)-----------0------------0-----------0------------0-----|
D)-------------------------------------------------------|
A)----7------------5-------------------------------------|
E)-----------------------------8------------8------------|

                I live to make you free
E)-------------------------------------------------------|
B)--------8------------8-----------8------------8--------|
G)-----------0------------0-----------0------------0-----|
D)-------------------------------------------------------|
A)----7------------5-------------------------------------|
E)-----------------------------8------------8------------|


Chorus

     But you can set sail to the west, if you want to
E)-------------------------------------------------------|
B)--------3------------3-----------3------------3--------|
G)-----------0------------0-----------0------------0-----|
D)-------------------------------------------------------|
A)------------------------------3-----------3------------|
E)----2------------3-------------------------------------|

     Past the horizon, 'till I can't even see you
E)-------------------------------------------------------|
B)--------3------------3-----------3------------3--------|
G)-----------0------------0-----------0------------0-----|
D)-------------------------------------------------------|
A)------------------------------3-----------3------------|
E)----2------------3-------------------------------------|

       Far from here, where the beaches are wide
E)-------------------------------------------------------|
B)--------3------------3-----------3------------3--------|
G)-----------0------------0-----------0------------0-----|
D)-------------------------------------------------------|
A)------------------------------3-----------3------------|
E)----2------------3-------------------------------------|

        Just leave me your wake to remember you by
E)-------------------------------------------------------|
B)--------3------------3-----------3------------3--------|
G)-----------0------------0-----------0------------0-----|
D)-------------------------------------------------------|
A)------------------------------3-----------3------------|
E)----2------------3-------------------------------------|

E)-------------------------------------------------------|
B)--------3------------3---------------------------------|
G)-----------0------------0------------------------------|
D)-------------------------------------------------------|
A)----3------------3-------------------------------------|
E)-------------------------------------------------------|

Interlude:

E)-------------------------------------------------------|
B)--------7------------5-----------------3---------3-----|
G)-----------0------------0-----------0---------------0--|
D)-------------------------------------------------------|
A)----5------------3-------------------------------------|
E)------------------------------2/3------------3---------|


E)-------------------------------------------------------|
B)--------7------------5-----------------3-----3-----3---|
G)-----------0------------0-----------0-----------0------|
D)-------------------------------------------------------|
A)----5------------3-------------------------------------|
E)------------------------------2/3----------------------|


E)-------------------------------------------------------|
B)--------7------------5-----------------3-----3-----3---|
G)-----------0------------0-----------0-----------0------|
D)-------------------------------------------------------|
A)----5------------3-------------------------------------|
E)------------------------------2/3----------------------|


E)-------------------------------------------------------|
B)--------7------------5-----------------3-----3-----3---|
G)-----------0------------0-----------0-----------0------|
D)-------------------------------------------------------|
A)----5------------3-------------------------------------|
E)------------------------------2/3----------------------|

Verse:

           If you'll be my star, I'll be your sky
E)-------------------------------------------------------|
B)--------8------------8-----------8------------8--------|
G)-----------0------------0-----------0------------0-----|
D)-------------------------------------------------------|
A)----7------------7-------------------------------------|
E)-----------------------------8------------8------------|

     You can hide underneath me and come out at night
E)-------------------------------------------------------|
B)--------8------------8-----------8------------8--------|
G)-----------0------------0-----------0------------0-----|
D)-------------------------------------------------------|
A)----7------------7-------------------------------------|
E)-----------------------------8------------8------------|

    When I turn jet black, and you show off your light
E)-------------------------------------------------------|
B)--------8------------8-----------8------------8--------|
G)-----------0------------0-----------0------------0-----|
D)-------------------------------------------------------|
A)----7------------7-------------------------------------|
E)-----------------------------8------------8------------|

                  I live to let you shine
E)-------------------------------------------------------|
B)--------8------------8-----------8------------8--------|
G)-----------0------------0-----------0------------0-----|
D)-------------------------------------------------------|
A)----7------------5-------------------------------------|
E)-----------------------------8------------8------------|

                  I live to let you shine
E)-------------------------------------------------------|
B)--------8------------8-----------8------------8--------|
G)-----------0------------0-----------0------------0-----|
D)-------------------------------------------------------|
A)----7------------5-------------------------------------|
E)-----------------------------8------------8------------|


Chorus:
           But you can skyrocket away, from me
E)-------------------------------------------------------|
B)--------3------------3-----------3------------3--------|
G)-----------0------------0-----------0------------0-----|
D)-------------------------------------------------------|
A)------------------------------3-----------3------------|
E)----2------------3-------------------------------------|

     And never come back if you find another galaxy
E)-------------------------------------------------------|
B)--------3------------3-----------3------------3--------|
G)-----------0------------0-----------0------------0-----|
D)-------------------------------------------------------|
A)------------------------------3-----------3------------|
E)----2------------3-------------------------------------|

      Far from here, where there's more room to fly
E)-------------------------------------------------------|
B)--------3------------3-----------3------------3--------|
G)-----------0------------0-----------0------------0-----|
D)-------------------------------------------------------|
A)------------------------------3-----------3------------|
E)----2------------3-------------------------------------|

     Just leave me your startdust to remember you by
E)-------------------------------------------------------|
B)--------3------------3-----------3------------3--------|
G)-----------0------------0-----------0------------0-----|
D)-------------------------------------------------------|
A)------------------------------3-----------3------------|
E)----2------------3-------------------------------------|


E)-------------------------------------------------------|
B)--------3------------3---------------------------------|
G)-----------0------------0------------------------------|
D)-------------------------------------------------------|
A)----3------------3-------------------------------------|
E)-------------------------------------------------------|

              Star dust to remember you
E)-------------------------------------------------------|
B)--------3------------3-----------3------------3--------|
G)-----------0------------0-----------0------------0-----|
D)-------------------------------------------------------|
A)------------------------------3-----------3------------|
E)----2------------3-------------------------------------|

End:
                        By
E)-------------------------------------------------------|
B)--------8------------8---------------------------------|
G)-----------0------------0------------------------------|
D)-------------------------------------------------------|
A)----7------------7------------7------------------------|
E)-------------------------------------------------------|
            
Submit corrections


        Boats And Birds lessons Hard to play? Try these video lessons and learn fast Boats And Birds lessons
        
↑ Back to top | Tablatures and chords for acoustic guitar and electric guitar, ukulele, drums are parodies/interpretations of the original songs. You may use it for private study, scholarship, research or language learning purposes only