Home » G » Gregorian Chant »

Gregorian Chant - Sanctus Xvii Tabs

Artists:  A B C D E F G H I J K L M N O P Q R S T U V W X Y Z # 

Sanctus Xvii Tabs

(ver. 2) Click to play this song!
Gregorian Chant
 Rating:
4/5 (4 votes)
                SANCTUS XVII     11th Century


A Gregorian Chant. Normal guitar tuning. Chant has no time signature.
"." after a note means hold. "/" means hammer-on. "\" means pull-off.

e|--------------|----------------|-------------|--------------------
b|--1.------------------1./-3--1.--1.---------------------1./-3--1--
g|-----2.\-0---------2----------------2.\-0------2-----2------------
D|------------3.--3--------------------------3.-----3---------------
A|------------------------------------------------------------------
E|------------------------------------------------------------------
   Sanc------tus, Sanc-------tus, Sanc------tus, Do-mi-nus De----us

                                                           |rit.----|
e -------0/1----------------|----------------------------------------|-
b --1/3-------3\1--3\1--1.----1----------1-----------------------------
g -------------------------------3--2/3-----5\3--0--2--0/2-------------
D ----------------------------------------------------------3/5\3--3.--
A ---------------------------------------------------------------------
E ---------------------------------------------------------------------
    Sa-------------ba--oth.  Ple-ni sunt    cae-----li  et  ter----ra

                 |rit.----|
e --------------------------|
b -------------1--1/3\1--1.--
g -----2\0--0----------------
D --3------------------------
A ---------------------------
E ---------------------------
   glo-ri---a     tu-----a

                                            |rit.----|
e -------0/1------------------------------------------|-
b --1/3-------3\1--3\1-------1.-------------------------
g ----------------------2/3-----3\0--2--0/2-------------
D -------------------------------------------3/5\3--3.--
A ------------------------------------------------------
E ------------------------------------------------------
    Ho-------------sa---na           in ex---cel----sis

e ---------------------------------|-------------------------------|
b -------------1--1--1--1/3\1--1.-----------------1--1--1/3\1--1.---
g -----2\0--0-----------------------------2\0--0--------------------
D --3----------------------------------3----------------------------
A ------------------------------------------------------------------
E ------------------------------------------------------------------
    Be-ne---dic-tus qui ve----nit     in  no---mi---ne Do---mi-ni

                                            |rit.----|
e -------0/1------------------------------------------|-
b --1/3-------3\1--3\1-------1.-------------------------
g ----------------------2/3-----3\0--2--0/2-------------
D -------------------------------------------3/5\3--3.--
A ------------------------------------------------------
E ------------------------------------------------------
    Ho-------------sa---na           in ex---cel----sis

Sanctus, Sanctus, Sanctus  {Holy, Holy, Holy}
Dominus Deus Sabaoth       {Lord God of Hosts}
Pleni sunt caeli et terra  {Heaven and Earth are filled}
Gloria tua                 {with your glory}
Hosanna in excelsis        {Hosanna in the highest}
Benedictus qui venit       {Blessed is He Who comes
in Nomine Domini           {in the Name of the Lord}
Hosanna in excelsis        {Hosanna in the highest}
            
Submit corrections

↑ Back to top | Tablatures and chords for acoustic guitar and electric guitar, ukulele, drums are parodies/interpretations of the original songs. You may use it for private study, scholarship, research or language learning purposes only