Home » G » Gregorian Chant »

Gregorian Chant - Da Pacem Tabs

Artists:  A B C D E F G H I J K L M N O P Q R S T U V W X Y Z # 

Da Pacem Tabs

(ver. 2) Click to play this song!
Gregorian Chant
 Rating:
4/5 (4 votes)
                DA PACEM


A Gregorian Chant hymn. Normal guitar tuning. Chant has no time signature.
"." after a note means hold. "/" means hammer-on. "\" means pull-off.

e|-----------------------|----------------------|-
b|-----------------0-------------0----------------
g|--------------3-----3.---2--3----3\2--0.--0.----
D|--0.------0-------------------------------------
A|------3-----------------------------------------
E|------------------------------------------------
   Da   pa-cem  Do-mi-ne   in di-e-bus  nos-tris:

e -------------------------------------|-----------------------|-
b ---------------------------------------------------------------
g -----------------------0/2\0--2/3\2.---2--2---0----------------
D --3--3--3\2--0---2--3-----------------------------3--3\5--3.---
A ---------------------------------------------------------------
E ---------------------------------------------------------------
   qui-a  non  est a-li-us              qui pu-gnet pro no-bis

e ------------------------------
b ------------------------------
g -------------0----------------
D --3--3--2/3-----3\2--0.--0.---
A ------------------------------
E ------------------------------

    ni-si tu   De-us   nos-ter.


Da pacem Domine      {give peace, Lord}
in diebus nostris    {in our days}
quia non est alius   {for there is no other}
qui pugnet pro nobis {who fights for us}
nisi tu Deus noster  {except You, our God}
            
Submit corrections

↑ Back to top | Tablatures and chords for acoustic guitar and electric guitar, ukulele, drums are parodies/interpretations of the original songs. You may use it for private study, scholarship, research or language learning purposes only