Home » G » Green Day »

Green Day - Walking Contradiction Tabs

Artists:  A B C D E F G H I J K L M N O P Q R S T U V W X Y Z # 

Walking Contradiction Tabs

(ver. 2) Click to play this song!
Green Day
 Rating:
4.4/5 (8 votes)
                Intro
e|----------------------------------------------------|
B|----------------------------------------------------|
G|--9-X-9-9--7-7-7----------9-X-9-9--7-7-7------------|
D|--9-X-9-9--7-7-7--7-7-7---9-X-9-9--7-7-7--7-7-7-----|
A|--7-X-7-7--5-5-5--7-7-7---7-X-7-7--5-5-5--7-7-7-----|
E|------------------5-5-5-------------------5-5-5-----|

e|----------------------------------------------------|
B|----------------------------------------------------|
G|--9-X-9-9--7-7-7----------9-X-9-9--7-7-7------------|
D|--9-X-9-9--7-7-7--7-7-7---9-X-9-9--7-7-7--7-7-7-----|
A|--7-X-7-7--5-5-5--7-7-7---7-X-7-7--5-5-5--7-7-7-----|
E|------------------5-5-5-------------------5-5-5-----|

Verse
e|----------------------------------------------------------|
B|----------------------------------------------------------|
G|--9-9--9-9-9----7-7--7-7-7-7------9-X-9-9--X--9-9-9-9-----|
D|--9-9--9-9-9----7-7--7-7-7-7------9-X-9-9--X--9-9-9-9-----|
A|--7-7--7-7-7----5-5--5-5-5-5------7-X-7-7--X--7-7-7-7-----|
E|----------------------------------------------------------|
    DEAR MOTHER   CAN YOU HEAR ME   WHINING 

e|-------------------------------------------------------------------------|
B|-------------------------------------------------------------------------|
G|--9-9--9-9-9---7-7--7-7-7-7----------------------------4-4--4-4-4-4------|
D|--9-9--9-9-9---7-7--7-7-7-7------5-5--5-5-5------------4-4--4-4-4-4------|
A|--7-7--7-7-7---5-5--5-5-5-5------5-5--5-5-5------------2-2--2-2-2-2------|
E|---------------------------------3-3--3-3-3------------------------------|
    IT’S BEEN  3 WHOLE WEEKS SINCE THAT I HAVE LEFT YOUR HOME

e|---------------------------------------------------------|
B|---------------------------------------------------------|
G|--9-9--9-9-9----7-7--7-7-7-7-----9-X-9-9--X--9-9-9-9-----|
D|--9-9--9-9-9----7-7--7-7-7-7-----9-X-9-9--X--9-9-9-9-----|
A|--7-7--7-7-7----5-5--5-5-5-5-----7-X-7-7--X--7-7-7-7-----|
E|---------------------------------------------------------|
    THIS SUDDEN   FEAR HAS LEFT ME TREMBLING

e|------------------------------------------------------------------|
B|------------------------------------------------------------------|
G|--9-9--9-9-9---7-7--7-7-7-7---------------------4-4--4-4-4-4------|
D|--9-9--9-9-9---7-7--7-7-7-7------5-5--5-5-5-----4-4--4-4-4-4------|
A|--7-7--7-7-7---5-5--5-5-5-5------5-5--5-5-5-----2-2--2-2-2-2------|
E|---------------------------------3-3--3-3-3-----------------------|
    CAUSE NOW IT SEEMS THAT I’ AM  OUT HERE ON MY OWN AND I’M

e|--------------------------------------------------------|
B|--------------------------------------------------------|
G|--------------4-4-4-4--4-4-4-4--4-4-4-4--4-4-4-4--------|
D|--5-5--5-5-5--4-4-4-4--4-4-4-4--4-4-4-4--4-4-4-4--------|
A|--5-5--5-5-5--2-2-2-2--2-2-2-2--2-2-2-2--2-2-2-2--------|
E|--3-3--3-3-3--------------------------------------------|
    FEELING SO  ALONE

Chorus
e|------------------------------------------------------------------|
B|------------------------------------------------------------------|
G|--------------------------------------------------5-5--5-5-5-5----|
D|--2-2--2-2-2-2----5-5--5-5-5-5-----7-7--7-7-7-7---5-5--5-5-5-5----|
A|--2-2--2-2-2-2----5-5--5-5-5-5-----7-7--7-7-7-7---3-3--3-3-3-3----|
E|--0-0--0-0-0-0----3-3--3-3-3-3-----5-5--5-5-5-5-------------------|
    PAY ATTENTION   TO THE CRACKED   AND THE BROKEN HOMES
                    STREETS

e|-------------------------------------------------------------------|
B|-------------------------------------------------------------------|
G|-------------------------------------4-4-4-4-4-4---4-4-4-4-4-4-----|
D|--2-2--2-2-2-2----5-5--5-5-5-5-------4-4-4-4-4-4---4-4-4-4-4-4-----|
A|--2-2--2-2-2-2----5-5--5-5-5-5-------2-2-2-2-2-2---2-2-2-2-2-2-----|
E|--0-0--0-0-0-0----3-3--3-3-3-3-------------------------------------|
    SOME CALL IT    SLUMS SOME CALL IT NICE

e|--------------------------------------------------------------------|
B|--------------------------------------------------------------------|
G|----------------------------------------------------5-5--5-5-5-5----|
D|--2-2--2-2-2-2-----5-5--5-5-5-5-----7-7--7-7-7-7----5-5--5-5-5-5----|
A|--2-2--2-2-2-2-----5-5--5-5-5-5-----7-7--7-7-7-7----3-3--3-3-3-3----|
E|--0-0--0-0-0-0-----3-3--3-3-3-3-----5-5--5-5-5-5--------------------|
    I WANNA TAKE YOU TO A PLACE I     LIKE TO CALL MY OWN

e|-----------------------------|
B|-----------------------------|
G|---------------4-------------|
D|--2-2--2-2-2---4-------------|
A|--2-2--2-2-2---2-------------|
E|--0-0--0-0-0-----------------|
                    WELCOME TO

Intro riff
e|----------------------------------------------------|
B|----------------------------------------------------|
G|--9-X-9-9--7-7-7----------9-X-9-9--7-7-7------------|
D|--9-X-9-9--7-7-7--7-7-7---9-X-9-9--7-7-7--7-7-7-----|
A|--7-X-7-7--5-5-5--7-7-7---7-X-7-7--5-5-5--7-7-7-----|
E|------------------5-5-5-------------------5-5-5-----|
    PARADISE

e|----------------------------------------------------|
B|----------------------------------------------------|
G|--9-X-9-9--7-7-7----------9-X-9-9--7-7-7------------|
D|--9-X-9-9--7-7-7--7-7-7---9-X-9-9--7-7-7--7-7-7-----|
A|--7-X-7-7--5-5-5--7-7-7---7-X-7-7--5-5-5--7-7-7-----|
E|------------------5-5-5-------------------5-5-5-----|

Verse
e|----------------------------------------------------------|
B|----------------------------------------------------------|
G|--9-9--9-9-9----7-7--7-7-7-7------9-X-9-9--X--9-9-9-9-----|
D|--9-9--9-9-9----7-7--7-7-7-7------9-X-9-9--X--9-9-9-9-----|
A|--7-7--7-7-7----5-5--5-5-5-5------7-X-7-7--X--7-7-7-7-----|
E|----------------------------------------------------------|
    A GUNSHOT     RINGS OUT AT THE  STATION

e|-------------------------------------------------------------------------|
B|-------------------------------------------------------------------------|
G|--9-9--9-9-9---7-7--7-7-7-7----------------------------4-4--4-4-4-4------|
D|--9-9--9-9-9---7-7--7-7-7-7------5-5--5-5-5------------4-4--4-4-4-4------|
A|--7-7--7-7-7---5-5--5-5-5-5------5-5--5-5-5------------2-2--2-2-2-2------|
E|---------------------------------3-3--3-3-3------------------------------|
    ANOTHER      URCHIN SNAPS      AND LEFT  DEAD ON HIS OWN

e|---------------------------------------------------------|
B|---------------------------------------------------------|
G|--9-9--9-9-9----7-7--7-7-7-7-----9-X-9-9--X--9-9-9-9-----|
D|--9-9--9-9-9----7-7--7-7-7-7-----9-X-9-9--X--9-9-9-9-----|
A|--7-7--7-7-7----5-5--5-5-5-5-----7-X-7-7--X--7-7-7-7-----|
E|---------------------------------------------------------|
    IT MAKES ME   WONDER WHY I’M   STILL HERE

e|-------------------------------------------------------------------|
B|-------------------------------------------------------------------|
G|--9-9--9-9-9---7-7--7-7-7-7----------------------4-4--4-4-4-4------|
D|--9-9--9-9-9---7-7--7-7-7-7------5-5--5-5-5------4-4--4-4-4-4------|
A|--7-7--7-7-7---5-5--5-5-5-5------5-5--5-5-5------2-2--2-2-2-2------|
E|---------------------------------3-3--3-3-3------------------------|
    FOR SOME    REASON IT’S NOW    FEELING LIKE MY HOME
    STRANGE
e|-----------------------------------------------------------|
B|-----------------------------------------------------------|
G|-----------------4-4-4-4--4-4-4-4--4-4-4-4--4-4-4-4--------|
D|--5-5--5-5-5-----4-4-4-4--4-4-4-4--4-4-4-4--4-4-4-4--------|
A|--5-5--5-5-5-----2-2-2-2--2-2-2-2--2-2-2-2--2-2-2-2--------|
E|--3-3--3-3-3-----------------------------------------------|
    AND I’M        GO
    NEVER GONNA

Chorus
e|------------------------------------------------------------------|
B|------------------------------------------------------------------|
G|--------------------------------------------------5-5--5-5-5-5----|
D|--2-2--2-2-2-2----5-5--5-5-5-5-----7-7--7-7-7-7---5-5--5-5-5-5----|
A|--2-2--2-2-2-2----5-5--5-5-5-5-----7-7--7-7-7-7---3-3--3-3-3-3----|
E|--0-0--0-0-0-0----3-3--3-3-3-3-----5-5--5-5-5-5-------------------|
    PAY ATTENTION   TO THE CRACKED   AND THE BROKEN HOMES
                    STREETS

e|-------------------------------------------------------------------|
B|-------------------------------------------------------------------|
G|-------------------------------------4-4-4-4-4-4---4-4-4-4-4-4-----|
D|--2-2--2-2-2-2----5-5--5-5-5-5-------4-4-4-4-4-4---4-4-4-4-4-4-----|
A|--2-2--2-2-2-2----5-5--5-5-5-5-------2-2-2-2-2-2---2-2-2-2-2-2-----|
E|--0-0--0-0-0-0----3-3--3-3-3-3-------------------------------------|
    SOME CALL IT    SLUMS SOME CALL IT NICE

e|--------------------------------------------------------------------|
B|--------------------------------------------------------------------|
G|----------------------------------------------------5-5--5-5-5-5----|
D|--2-2--2-2-2-2-----5-5--5-5-5-5-----7-7--7-7-7-7----5-5--5-5-5-5----|
A|--2-2--2-2-2-2-----5-5--5-5-5-5-----7-7--7-7-7-7----3-3--3-3-3-3----|
E|--0-0--0-0-0-0-----3-3--3-3-3-3-----5-5--5-5-5-5--------------------|
    I WANNA TAKE YOU TO A PLACE I     LIKE TO CALL MY OWN

e|-----------------------------|
B|-----------------------------|
G|---------------4-------------|
D|--2-2--2-2-2---4-------------|
A|--2-2--2-2-2---2-------------|
E|--0-0--0-0-0-----------------|
                    WELCOME TO

Intro riff
e|----------------------------------------------------|
B|----------------------------------------------------|
G|--9-X-9-9--7-7-7----------9-X-9-9--7-7-7------------|
D|--9-X-9-9--7-7-7--7-7-7---9-X-9-9--7-7-7--7-7-7-----|
A|--7-X-7-7--5-5-5--7-7-7---7-X-7-7--5-5-5--7-7-7-----|
E|------------------5-5-5-------------------5-5-5-----|
    PARADISE

e|-----------------------------------------------------0-------|
B|-----------------------------------------------------0-------|
G|--9-X-9-9--7-7-7----------9-X-9-9--7-7-7-------------0-------|
D|--9-X-9-9--7-7-7--7-7-7---9-X-9-9--7-7-7--7-7-7------2-------|
A|--7-X-7-7--5-5-5--7-7-7---7-X-7-7--5-5-5--7-7-7------2-------|
E|------------------5-5-5-------------------5-5-5------0-------|

This is the bass riff part if you wanna play it on guitar
e|----------------------------------------------------|
B|-------7-9---------9----------8---------8-----------|
G|--7-7--------10-10---10---9-9---9---8-8---10--------|
D|----------------------------------------------------|

e|----------------------------------------------------|
B|-------7-9---------9----------8---------8-----------|
G|--7-7--------10-10---10---9-9---9---8-8---10--------|
D|----------------------------------------------------|

e|----------------------------------------------------|
B|-------7-9---------9----------8---------8-----------|
G|--7-7--------10-10---10---9-9---9---8-8---10--------|
D|----------------------------------------------------|

Solo
e|-------------------------------------------------------|
B|-------------------------------------------------------|
G|-------------------------------------------------------|
D|-------------------------------------------------------|
A|--2/7-----7/2------3-2-0-2-3-2----------10-9-8-7-------|
E|----------------------------------5--------------------|

e|-------------------------------------------------------|
B|-------9-0---------12-0-------11-0--------10-0---------|
G|-------------------------------------------------------|
D|-------------------------------------------------------|
A|--7-7--------10-10--------9-9--------8-8---------------|
E|-------------------------------------------------------|

e|-------------------------------------------------------|
B|-------9-0---------12-0-------11-0--------10-0---------|
G|-------------------------------------------------------|
D|-------------------------------------------------------|
A|--7-7--------10-10--------9-9--------8-8---------------|
E|-------------------------------------------------------|

e|-------------------------------------------------------|
B|-------9-0---------12-0-------11-0--------10-0---------|
G|-------------------------------------------------------|
D|-------------------------------------------------------|
A|--7-7--------10-10--------9-9--------8-8---------------|
E|-------------------------------------------------------|

e|------12-----14------14/15------5------------|
B|--12-----12-----12-----------5---------------|
G|---------------------------------------------|
D|---------------------------------------------|
A|---------------------------------------------|
E|---------------------------------------------|

e|-------------------------------------------------------|
B|-------9-0---------12-0-------11-0--------10-0---------|
G|-------------------------------------------------------|
D|-------------------------------------------------------|
A|--7-7--------10-10--------9-9--------8-8---------------|
E|-------------------------------------------------------|
you can play this riff until the singing part comes in or 
you can play the chords below over the solo part

Chords over solo
e|----------------------------------------------------|
B|----------------------------------------------------|
G|----------------------------------------------------|
D|--9-9--9/12-12--12/11-11--11/10-10--10/9-9----------|
A|--9-9--9/12-12--12/11-11--11/10-10--10/9-9----------|
E|--7-7--7/10-10--10/9--9---9-/8--8---8-/7-7----------|

e|----------------------------------------------------|
B|----------------------------------------------------|
G|----------------------------------------------------|
D|--9-9--9/12-12--12/11-11--11/10-10--10/9-9----------|
A|--9-9--9/12-12--12/11-11--11/10-10--10/9-9----------|
E|--7-7--7/10-10--10/9--9---9-/8--8---8-/7-7----------|

e|----------------------------------------------------|
B|----------------------------------------------------|
G|----------------------------------------------------|
D|--9-9--9/12-12--12/11-11--11/10-10--10/9-9----------|
A|--9-9--9/12-12--12/11-11--11/10-10--10/9-9----------|
E|--7-7--7/10-10--10/9--9---9-/8--8---8-/7-7----------|

e|----------------------------------------------------|
B|----------------------------------------------------|
G|----------------------------------------------------|
D|--9-9--9/12-12--12/11-11--11/10-10--10/9-9----------|
A|--9-9--9/12-12--12/11-11--11/10-10--10/9-9----------|
E|--7-7--7/10-10--10/9--9---9-/8--8---8-/7-7----------|

e|-------------------------------------------------------------------------------|
B|-------------------------------------------------------------------------------|
G|-------------------------------------------------------------------------------|
D|--9-9-9--12-12-12--11-11-11--10-10-10---9-9-9--12-12-12--11-11-11--10-10-10----|
A|--9-9-9--12-12-12--11-11-11--10-10-10---9-9-9--12-12-12--11-11-11--10-10-10----|
E|--7-7-7--10-10-10--9--9--9---8--8--8----7-7-7--10-10-10--9--9--9---8--8--8-----|

e|-------------------------------------------------------------------------------|
B|-------------------------------------------------------------------------------|
G|-------------------------------------------------------------------------------|
D|--9-9-9--12-12-12--11-11-11--10-10-10---9-9-9--12-12-12--11-11-11--10-10-10----|
A|--9-9-9--12-12-12--11-11-11--10-10-10---9-9-9--12-12-12--11-11-11--10-10-10----|
E|--7-7-7--10-10-10--9--9--9---8--8--8----7-7-7--10-10-10--9--9--9---8--8--8-----|

verse
e|----------------------------------------------------------|
B|----------------------------------------------------------|
G|--9-9--9-9-9----7-7--7-7-7-7------9-X-9-9--X--9-9-9-9-----|
D|--9-9--9-9-9----7-7--7-7-7-7------9-X-9-9--X--9-9-9-9-----|
A|--7-7--7-7-7----5-5--5-5-5-5------7-X-7-7--X--7-7-7-7-----|
E|----------------------------------------------------------|
    DEAR MOTHER   CAN YOU HEAR ME   LAUGHING

e|-------------------------------------------------------------------------|
B|-------------------------------------------------------------------------|
G|--9-9--9-9-9---7-7--7-7-7-7----------------------------4-4--4-4-4-4------|
D|--9-9--9-9-9---7-7--7-7-7-7------5-5--5-5-5------------4-4--4-4-4-4------|
A|--7-7--7-7-7---5-5--5-5-5-5------5-5--5-5-5------------2-2--2-2-2-2------|
E|---------------------------------3-3--3-3-3------------------------------|
    IT’S BEEN  6 WHOLE WEEKS SINCE THAT I HAVE LEFT YOUR HOME

e|---------------------------------------------------------|
B|---------------------------------------------------------|
G|--9-9--9-9-9----7-7--7-7-7-7-----9-X-9-9--X--9-9-9-9-----|
D|--9-9--9-9-9----7-7--7-7-7-7-----9-X-9-9--X--9-9-9-9-----|
A|--7-7--7-7-7----5-5--5-5-5-5-----7-X-7-7--X--7-7-7-7-----|
E|---------------------------------------------------------|
    IT MAKES ME   WONDER WHY I’M   STILL HERE

e|-------------------------------------------------------------------|
B|-------------------------------------------------------------------|
G|--9-9--9-9-9---7-7--7-7-7-7----------------------4-4--4-4-4-4------|
D|--9-9--9-9-9---7-7--7-7-7-7------5-5--5-5-5------4-4--4-4-4-4------|
A|--7-7--7-7-7---5-5--5-5-5-5------5-5--5-5-5------2-2--2-2-2-2------|
E|---------------------------------3-3--3-3-3------------------------|
    FOR SOME    REASON IT’S NOW    FEELING LIKE MY HOME
    STRANGE

e|-----------------------------------------------------------|
B|-----------------------------------------------------------|
G|-----------------4-4-4-4--4-4-4-4--4-4-4-4--4-4-4-4--------|
D|--5-5--5-5-5-----4-4-4-4--4-4-4-4--4-4-4-4--4-4-4-4--------|
A|--5-5--5-5-5-----2-2-2-2--2-2-2-2--2-2-2-2--2-2-2-2--------|
E|--3-3--3-3-3-----------------------------------------------|
    AND I’M        GO
    NEVER GONNA

Chorus
e|------------------------------------------------------------------|
B|------------------------------------------------------------------|
G|--------------------------------------------------5-5--5-5-5-5----|
D|--2-2--2-2-2-2----5-5--5-5-5-5-----7-7--7-7-7-7---5-5--5-5-5-5----|
A|--2-2--2-2-2-2----5-5--5-5-5-5-----7-7--7-7-7-7---3-3--3-3-3-3----|
E|--0-0--0-0-0-0----3-3--3-3-3-3-----5-5--5-5-5-5-------------------|
    PAY ATTENTION   TO THE CRACKED   AND THE BROKEN HOMES
                    STREETS

e|-------------------------------------------------------------------|
B|-------------------------------------------------------------------|
G|-------------------------------------4-4-4-4-4-4---4-4-4-4-4-4-----|
D|--2-2--2-2-2-2----5-5--5-5-5-5-------4-4-4-4-4-4---4-4-4-4-4-4-----|
A|--2-2--2-2-2-2----5-5--5-5-5-5-------2-2-2-2-2-2---2-2-2-2-2-2-----|
E|--0-0--0-0-0-0----3-3--3-3-3-3-------------------------------------|
    SOME CALL IT    SLUMS SOME CALL IT NICE

e|--------------------------------------------------------------------|
B|--------------------------------------------------------------------|
G|----------------------------------------------------5-5--5-5-5-5----|
D|--2-2--2-2-2-2-----5-5--5-5-5-5-----7-7--7-7-7-7----5-5--5-5-5-5----|
A|--2-2--2-2-2-2-----5-5--5-5-5-5-----7-7--7-7-7-7----3-3--3-3-3-3----|
E|--0-0--0-0-0-0-----3-3--3-3-3-3-----5-5--5-5-5-5--------------------|
    I WANNA TAKE YOU TO A PLACE I     LIKE TO CALL MY OWN

e|-----------------------------|
B|-----------------------------|
G|---------------4-------------|
D|--2-2--2-2-2---4-------------|
A|--2-2--2-2-2---2-------------|
E|--0-0--0-0-0-----------------|
                    WELCOME TO

Outro
e|----------------------------------------------------|
B|----------------------------------------------------|
G|--9-X-9-9--7-7-7----------9-X-9-9--7-7-7------------|
D|--9-X-9-9--7-7-7--7-7-7---9-X-9-9--7-7-7--7-7-7-----|
A|--7-X-7-7--5-5-5--7-7-7---7-X-7-7--5-5-5--7-7-7-----|
E|------------------5-5-5-------------------5-5-5-----|
    PARADISE

e|-------------------------------------------------------|
B|-------------------------------------------------------|
G|--9-X-9-9--7-7-7----------9-X-9-9--7-7-7----------9----|
D|--9-X-9-9--7-7-7--7-7-7---9-X-9-9--7-7-7--7-7-7---9----|
A|--7-X-7-7--5-5-5--7-7-7---7-X-7-7--5-5-5--7-7-7---7----|
E|------------------5-5-5-------------------5-5-5--------|
            
Submit corrections

↑ Back to top | Tablatures and chords for acoustic guitar and electric guitar, ukulele, drums are parodies/interpretations of the original songs. You may use it for private study, scholarship, research or language learning purposes only