» » »

Green Day - Nice Guys Finnish Last Tabs

Artists:  A B C D E F G H I J K L M N O P Q R S T U V W X Y Z # 

Nice Guys Finnish Last Tabs

(ver. 1) Click to play this song!
Green Day
 Rating:
4/5 (4 votes)
                PROPS GO TO: Tom

Rhy. Fig. 1
   A5  E             A5  B5            A5  E             A5  B5
E|-----------------|-----------------|-----------------|-----------------|
B|-----------------|-----------------|-----------------|-----------------|
G|-----9---9-9-9-9-|-----------------|-----9---9-9-9-9-|-----------------|
D|-7---9---9-9-9-9-|-7---9---9-9-9-9-|-7---9---9-9-9-9-|-7---9---9-9-9-9-|
A|-7---7---7-7-7-7-|-7---9---9-9-9-9-|-7---7---7-7-7-7-|-7---9---9-9-9-9-|
E|-5---------------|-5---7---7-7-7-7-|-5---------------|-5---7---7-7-7-7-|

   E5                            A5    E
E|-----------------|-----------------|-----------------|-----------------|
B|-----------------|-----------------|-----------------|-----------------|
G|-----------------|-----------------|-9\--------------|-----------------|
D|-2---------------|-------------7---|-9\--------------|-----------------|
A|-2---------------|-------------7---|-7\--------------|-----------------|
E|-0---------------|-------------5---|-----------------|-----------------|

Verse 1

G|-----------------|-----------------|-----------------|-----------------|B
D|-----------------|-----------------|-----------------|-----------------|A
A|-7-7-7-7-7-7-7-7-|-7-7-7-7-7-7-7-7-|-7-7-7-7-7-7-7-7-|-7-7-7-7-7-7-7-7-|S
E|-----------------|-----------------|-----------------|-----------------|S

G|-----------------|-----------------|-----------------|-----------------|B
D|-----------------|-----------------|-----------------|-----------------|A
A|-----------------|-----------------|-7-7-7-7-7-7-7-7-|-7-7-7-7-7-7-----|S
E|-7-7-7-7-7-7-7-7-|-7-7-7-7-7-7-7-7-|-----------------|-------------5---|S
 |                                                                       |
E|-----------------|-----------------|-----------------|-----------------|G
B|-----------------|-----------------|-----------------|-----------------|U
G|-----------------|-----------------|-----------------|-----------------|I
D|-----------------|-----------------|-----------------|-------------7---|T
A|-----------------|-----------------|-----------------|-------------7---|A
E|-----------------|-----------------|-----------------|-------------5---|R

Verse Riff
   E
E|-----------------|-----------------|-----------------|-----------------|
B|-----------------|-----------------|-----------------|-----------------|
G|-9---9-9-9-9-9-9-|-9-9-9-9-9-9-9-9-|-9-9-9-9-9-9-9-9-|-9-9-9-9-9-9-9-9-|
D|-9---9-9-9-9-9-9-|-9-9-9-9-9-9-9-9-|-9-9-9-9-9-9-9-9-|-9-9-9-9-9-9-9-9-|
A|-7---7-7-7-7-7-7-|-7-7-7-7-7-7-7-7-|-7-7-7-7-7-7-7-7-|-7-7-7-7-7-7-7-7-|
E|-----------------|-----------------|-----------------|-----------------|
       PM---------------------------------------------------------------|

   B5                                  E
E|-----------------|-----------------|-----------------|-----------------|
B|-----------------|-----------------|-----------------|-----------------|
G|-----------------|-----------------|-9-9-9-9-9-9-9-9-|-9-9-9-9-9-9-9-9-|
D|-9-9-9-9-9-9-9-9-|-9-9-9-9-9-9-9-9-|-9-9-9-9-9-9-9-9-|-9-9-9-9-9-9-9-9-|
A|-9-9-9-9-9-9-9-9-|-9-9-9-9-9-9-9-9-|-7-7-7-7-7-7-7-7-|-7-7-7-7-7-7-7-7-|
E|-7-7-7-7-7-7-7-7-|-7-7-7-7-7-7-7-7-|-----------------|-----------------|
   PM-------------------------------------------------------------------|

Pre-Chorus Riff
   A5                                  E
E|-----------------|-----------------|-----------------|-----------------|
B|-----------------|-----------------|-----------------|-----------------|
G|-----------------|-----------------|-9---9---9-9-9-9-|---9-9---9-9-9-9-|
D|-7---7---7-7-7-7-|---7-7---7-7-7-7-|-9---9---9-9-9-9-|---9-9---9-9-9-9-|
A|-7---7---7-7-7-7-|---7-7---7-7-7-7-|-7---7---7-7-7-7-|---7-7---7-7-7-7-|
E|-5---5---5-5-5-5-|---5-5---5-5-5-5-|-----------------|-----------------|


Chorus Riff
   E5            A                     E5            A
E|-----------------|-----------------|-----------------|-----------------|
B|-----------------|-----------------|-----------------|-----------------|
G|---------------2-|---2-2---2-2-2-2-|---------------2-|---2-2---2-2-2-2-|
D|-2---2---2-2-2-2-|---2-2---2-2-2-2-|-2---2---2-2-2-2-|---2-2---2-2-2-2-|
A|-2---2---2-2-2-0-|---0-0---0-0-0-0-|-2---2---2-2-2-0-|---0-0---0-0-0-0-|
E|-0---0---0-0-0---|-----------------|-0---0---0-0-0---|-----------------|

   E5            A                     B
E|-----------------|-----------------|-----------------|-----------------|
B|-----------------|-----------------|-----------------|-------4-4-4-4-4-|
G|---------------2-|---2-2---2-2-2-2-|-4-4-4-4-4-4-4-4-|-4-4-4-4-4-4-4-4-|
D|-2---2---2-2-2-2-|---2-2---2-2-2-2-|-4-4-4-4-4-4-4-4-|-4-4-4-4-4-4-4-4-|
A|-2---2---2-2-2-0-|---0-0---0-0-0-0-|-2-2-2-2-2-2-2-2-|-2-2-2-2-2-2-2-2-|
E|-0---0---0-0-0---|-----------------|-----------------|-----------------|

Interlude (First play Intro Riff for a bit then play this)

E|-----------------|-----------------|-----------------|-----------------|
B|-----------------|-----------------|-----------------|-----------------|
G|-----------------|-----------------|-----------------|-----------------|
D|-7---7-7-7-7-6---|-4---4-4-4-4-7---|-9---9-9-9-9-9-9-|-9-9-9-9-9-9-9-9-|
A|-7---7-7-7-7-6---|-4---4-4-4-4-7---|-9---9-9-9-9-9-9-|-9-9-9-9-9-9-9-9-|
E|-5---5-5-5-5-4---|-2---2-2-2-2-5---|-7---7-7-7-7-7-7-|-7-7-7-7-7-7-7-7-|

Intro Riff

Verse 1 w/ Verse 1 Riff
Nice guys finish last.
You're running out of gas.
Your sympathy will get you left behind.

Sometimes your at your best, when you look the worst.
Do you feel washed up, like p**s going down the drain.

Pre-Chorus w/ Pre-Chorus Riff
Pressure cooker pick my brain and tell me I'm insane.
I'm so f**king happy I could cry.
Every joke can have its truth and now the joke's on you.
I never know you were such a funny guy.

Chorus w/ Chorus Riff
Oh nice guys finish last, when you are the outcast.
Donn't pat yourself on the back, you might break your spine.

Verse 2 w/ Verse Riff
Living on command.
You're shaking lots of hands.
Kissing up and bleeding all your trust, taking what you need.
Bit the hand that feeds.
You kill your memory.

Pre-Chorus
Chorus X2
Interlude
Chorus X2
Verse 1 Riff (3rd bar only)
            
Submit corrections

↑ Back to top | Tablatures and chords for acoustic guitar and electric guitar, ukulele, drums are parodies/interpretations of the original songs. You may use it for private study, scholarship, research or language learning purposes only