» » »

Green Day - East Jesus Nowhere Tabs

Artists:  A B C D E F G H I J K L M N O P Q R S T U V W X Y Z # 

East Jesus Nowhere Tabs

(ver. 1) Click to play this song!
Green Day
 Rating:
4/5 (4 votes)

 East Jesus Nowhere lessons Tabs too difficult? Try these video lessons and learn fast
 
                ----------------------------------------------------------------------------
                    EAST JESUS NOWHERE-Green Day
----------------------------------------------------------------------------

tuning: standard E B G D A E

INTRO:
E|-----------------------------|-----------------------------|
B|-----------------------------|-----------------------------|
G|-----------------------------|-----------------------------|
D|-9-12-9-7-9--X-X-X-X-X-X-X-X-|-9-12-9-7-9--X-X-X-X-X-X-X-X-|
A|-7-10-7-5-7--X-X-X-X-X-X-X-X-|-7-10-7-5-7--X-X-X-X-X-X-X-X-|
E|-----------------------------|-----------------------------|

E|-----------------------------|-----------------------------|
B|-----------------------------|-----------------------------|
G|-----------------------------|-----------------------------|
D|-9-12-9-7-9--X-X-X-X-X-X-X-X-|-9-12-9-7-9--X-X-X-X-X-X-X-X-|
A|-7-10-7-5-7--X-X-X-X-X-X-X-X-|-7-10-7-5-7--X-X-X-X-X-X-X-X-|
E|-----------------------------|-----------------------------|

then guitar 2 comes in:
E|-----------------------------|-----------------------------|
B|-----------------------------|-----------------------------|
G|-----------------------------|-----------------------------|
D|-9-12-9-7-9--X-X-X-X-X-X-X-X-|-9-12-9-7-9--X-X-X-X-X-X-X-X-|
A|-7-10-7-5-7--X-X-X-X-X-X-X-X-|-7-10-7-5-7--X-X-X-X-X-X-X-X-|
E|-----------------------------|-----------------------------|

E|-----------------------------|-----------------------------|
B|-----------------------------|-----------------------------|
G|-----------------------------|-----------------------------|
D|-9-12-9-7-9--X-X-X-X-X-X-X-X-|-9-12-9-7-9--X-X-X-X-X-X-X-X-|
A|-7-10-7-5-7--X-X-X-X-X-X-X-X-|-7-10-7-5-7--X-X-X-X-X-X-X-X-|
E|-----------------------------|-----------------------------|

VERSE:
E|-----------------------------|-----------------------------|
B|-----------------------------|-----------------------------|
G|-----------------------------|-----------------------------|
D|-7---9-----------------7---9-|-7---9-----------------7---9-|
A|-5-7-7-----------------5-7-7-|-5-7-7-----------------5-7-7-|
E|---5---------------------5---|---5---------------------5---|

E|-----------------------------|-----------------------------|
B|-----------------------------|-----------------------------|
G|-----------------------------|-----------------------------|
D|-9-12-9-7-9--X-X-X-X-X-X-X-X-|-9-12-9-7-9--X-X-X-X-X-X-X-X-|
A|-7-10-7-5-7--X-X-X-X-X-X-X-X-|-7-10-7-5-7--X-X-X-X-X-X-X-X-|
E|-----------------------------|-----------------------------|

E|-----------------------------|-----------------------------|
B|-----------------------------|-----------------------------|
G|-----------------------------|-----------------------------|
D|-9-12-9-7-9--X-X-X-X-X-X-X-X-|-9-12-9-7-9--X-X-X-X-X-X-X-X-|
A|-7-10-7-5-7--X-X-X-X-X-X-X-X-|-7-10-7-5-7--X-X-X-X-X-X-X-X-|
E|-----------------------------|-----------------------------|

PRE-CHORUS:
E|-----------------------------|-----------------------------|
B|-----------------------------|-----------------------------|
G|-----------------------------|-----------------------------|
D|-7---------------------7-----|-7---------------------7-----|
A|-5-7-9-----------------5-7-9-|-5-7-9-----------------5-7-9-|
E|---5-7-------------------5-7-|---5-7-------------------5-7-|

CHORUS:
E|--------------------------|--------------------------|
B|--------------------------|--------------------------|
G|--------------------------|--------------------------|
D|-9-9-9-9-9-9--7-7-7-7-7-7-|-6-6-6-6-6-6--5-5-5-4-4-4-|
A|-7-7-7-7-7-7--5-5-5-5-5-5-|-4-4-4-4-4-4--3-3-3-2-2-2-|
E|--------------------------|--------------------------|

E|--------------------------|--------------------------|
B|--------------------------|--------------------------|
G|--------------------------|--------------------------|
D|-9-9-9-9-9-9--7-7-7-7-7-7-|-6-6-6-6-6-6--5-5-5-4-4-4-|
A|-7-7-7-7-7-7--5-5-5-5-5-5-|-4-4-4-4-4-4--3-3-3-2-2-2-|
E|--------------------------|--------------------------|

BRIDGE 1:
E|--------------------------|--------------------------|
B|--------------------------|--------------------------|
G|--------------------------|--------------------------|
D|--------------------------|--------------------------|
A|--------------------------|--------------------------|
E|-0-0-0-0-0-0--3-3-3-3-3-3-|-7-7-7-7-7-7--7-7-7-7-7-7-|

E|--------------------------|--------------------------|
B|--------------------------|--------------------------|
G|--------------------------|--------------------------|
D|--------------------------|--------------------------|
A|--------------------------|--------------------------|
E|-0-0-0-0-0-0--3-3-3-3-3-3-|-7-7-7-7-7-7--7-7-7-7-7-7-|

E|--------------------------|--------------------------|
B|--------------------------|--------------------------|
G|--------------------------|--------------------------|
D|--------------------------|--------------------------|
A|--------------------------|--------------------------|
E|-0-0-0-0-0-0--3-3-3-3-3-3-|-7-7-7-7-7-7--7-7-7-7-7-7-|

E|--------------------------|--------------------------|
B|--------------------------|--------------------------|
G|--------------------------|--------------------------|
D|--------------------------|--------------------------|
A|--------------------------|--------------------------|
E|-0-0-0-0-0-0--3-3-3-3-3-3-|-7-7-7-7-7-7--7-7-7-7-7-7-|

BRIDGE 2:
E|-----------------------------|-----------------------------|
B|-----------------------------|-----------------------------|
G|-----------------------------|-----------------------------|
D|-9-9-9-9-9-9-9-9-9-9-9-9-9-9-|-9-9-9-9-9-9-9-9-9-9-9-9-9-9-|
A|-7-7-7-7-7-7-7-7-7-7-7-7-7-7-|-7-7-7-7-7-7-7-7-7-7-7-7-7-7-|
E|-----------------------------|-----------------------------|

E|-----------------------------|-----------------------------|
B|-----------------------------|-----------------------------|
G|-----------------------------|-----------------------------|
D|-9-9-9-9-9-9-9-9-9-9-9-9-9-9-|-9---9---9---9---------------|
A|-7-7-7-7-7-7-7-7-7-7-7-7-7-7-|-7---7---7---7---------------|
E|-----------------------------|-----------------------------|

SOLO:
E|-0---0-2-3---3-5---5--7-8---7---12----12--14-10--12----12-14-15-10-14-12-|
B|---0-------3-----5--------8---7---12---------------12--------------------|
G|-------------------------------------------------------------------------|
D|-------------------------------------------------------------------------|
A|-------------------------------------------------------------------------|
E|-------------------------------------------------------------------------|

----------------------------------------------------------------------------
INTRO
VERSE
PRE-CHORUS
CHORUS
INTRO*
BRIDGE 1
PRE-CHORUS
CHORUS
INTRO*
BRIDGE 2
PRE-CHORUS
SOLO
CHORUS
INTRO*

*play with guitar 2 

EAST JESUS NOWHERE

raise your hands now to testify
your confession will be crucified
you're a sacrificial suicide
like a dog thats been sodomized

stand up!-all the white boys
sit down!-and the black girls
stand up!-your the soldiers
sit down!-of the new world

put your faith in a miracle
and it's non-denominational
join the choir we will be singing
in the church of wishful thinking

a fire burns today
of blasphemy and genocide
the sirens of decay
will infiltrate the faith fanatics

oh bless me lord for i have sinned
it's been a lifetime since i last confessed
i threw my crutches in "the river of a shadow of doubt"
and i'll be dressed up in my Sunday best

say a prayer for the family
drop a coin for humanity
ain't this uniform so flattering
i never asked you a god damned thing

a fire burns today
of blasphemy and genocide
the sirens of decay
will infiltrate the faith fanatics

don't test me
second guess me
protest me
you will disappear

i want to know who's allowed to breed
all the dogs who never learned to read
missionary politicians
and the cops of a new religion

a fire burns today
of blasphemy and genocide
the sirens of decay
will infiltrate the faith fanatics    
            
Submit corrections


        East Jesus Nowhere lessons Hard to play? Try these video lessons and learn fast East Jesus Nowhere lessons
        
↑ Back to top | Tablatures and chords for acoustic guitar and electric guitar, ukulele, drums are parodies/interpretations of the original songs. You may use it for private study, scholarship, research or language learning purposes only