» » »

Green Day - Brain Stew Tabs

Artists:  A B C D E F G H I J K L M N O P Q R S T U V W X Y Z # 

Brain Stew Tabs

(ver. 1) Click to play this song!
Green Day
 Rating:
4.4/5 (7 votes)

 Brain Stew lessons Tabs too difficult? Try these video lessons and learn fast
 
                [Intro]

e|---------------------------------------------------------------------------|
B|---------------------------------------------------------------------------|
G|---------------------------------------------------------------------------|
D|---------------------------------------------------------------------------|
A|-77---55---44---33-22------------------------------------------------------|
E|-55---33---22---11-00------------------------------------------------------|
Play this 2 times


[Verse]

e|---------------------------------------------------------------------------|
B|---------------------------------------------------------------------------|
G|---------------------------------------------------------------------------|
D|---------------------------------------------------------------------------|
A|-77---55---44---33-22------------------------------------------------------|
E|-55---33---22---11-00------------------------------------------------------|
Play this 10 times

e|---------------------------------------------------------------------------|
B|---------------------------------------------------------------------------|
G|---------------------------------------------------------------------------|
D|---------------------------------------------------------------------------|
A|---------------------------------------------------------------------------|
E|-55xxx33xxx22xxx11-00------------------------------------------------------|
Play 4 times

e|---------------------------------------------------------------------------|
B|----------------7^---------------------------------------------------------|
G|---------------------------------------------------------------------------|
D|---------------------------------------------------------------------------|
A|---------------------------------------------------------------------------|
E|-55xxx33xxx22xxx-----------------------------------------------------------|


[Outro]

e|----0----0----0------|---------------------------------------------------------|
B|----0----0----0------|-----10--------------------------------------------------|
G|----0----0----0------|-----11^-------------------------------------------------|
D|----0----0----0------|---------------------------------------------------------|
A|-77-0-55-0-44-0-33-22|---------------------------------------------------------|
E|-55-0-33-0-22-0-11-00|---------------------------------------------------------|
Play this first part 3 times|Play this second part 4 times, but hold out the last note the final time

            
Submit corrections


        Brain Stew lessons Hard to play? Try these video lessons and learn fast Brain Stew lessons
        
↑ Back to top | Tablatures and chords for acoustic guitar and electric guitar, ukulele, drums are parodies/interpretations of the original songs. You may use it for private study, scholarship, research or language learning purposes only