» » »

Green Day - Bouncing Off The Wall Tabs

Artists:  A B C D E F G H I J K L M N O P Q R S T U V W X Y Z # 

Bouncing Off The Wall Tabs

(ver. 1) Click to play this song!
Green Day
 Rating:
4.4/5 (8 votes)

 Bouncing Off The Wall  lessons Tabs too difficult? Try these video lessons and learn fast
 
                [intro]
E|-------------------------------------------------------------------------------|
B|-------------------------------------------------------------------------------|
G|-------------9------12-12-12-12--9-9-9-9------9------7-7-7--9--11-11-11-11-----|
D|--7-7-8---9--9--9---12-12-12-12--9-9-9-9---9--9--9---7-7-7--9--11-11-11-11-----|
A|--7-7-8---9--7--9---10-10-10-10--7-7-7-7---9--7--9---5-5-5--7--9--9--9--9------|
E|--5-5-6---7-----7--------------------------7-----7-----------------------------|

E|-----------------------------------------------------------------------|
B|-----------------------------------------------------------------------|
G|-----9------12-12-12-12--9-9-9-9------9------7-7-7--9--11-11-11-11-----|
D|--9--9--9---12-12-12-12--9-9-9-9---9--9--9---7-7-7--9--11-11-11-11-----|
A|--9--7--9---10-10-10-10--7-7-7-7---9--7--9---5-5-5--7--9--9--9--9------|
E|--7-----7--------------------------7-----7-----------------------------|

[verse]
E|-----------X-X-X------------------------------------X-X-X-------------------------|
B|-----------X-X-X------------------------------------X-X-X-------------------------|
G|-----9-----X-X-X--9-9--11-11-11-11------------9-----X-X-X--9-9--11-11-11-11-------|
D|--9--9--9--X-X-X--9-9--11-11-11-11---------9--9--9--X-X-X--9-9--11-11-11-11-------|
A|--9--7--9--X-X-X--7-7--9--9--9--9----------9--7--9--X-X-X--7-7--9--9--9--9--------|
E|--7-----7--X-X-X---------------------------7-----7--X-X-X-------------------------|
   CONCRETE DREAM  I'M GONNA MAKE A SCENE   A RADIO         COVERED IN GASOLINE

E|------------------------------------------------------------------------------------------|
B|------------------------------------------------------------------------------------------|
G|-----9------------------------------------------------------------9-9---------------------|
D|--9--9--9-----------------7-7-7-7-----4-4-4-4----------------9-9--9-9--9-9-9-9--9-9-9-----|
A|--9--7--9-----------------7-7-7-7-----4-4-4-4----------------9-9--7-7--9-9-9-9--9-9-9-----|
E|--7-----7-----------------5-5-5-5-----2-2-2-2----------------7-7-------7-7-7-7--7-7-7-----|
   SLEEPING IN REVERSE AND EVERYBODY'S BOUNCING OFF THE WALLS

E|------------------X-X-X----------------------------------X-X-X-----------------------|
B|------------------X-X-X----------------------------------X-X-X-----------------------|
G|------------9-----X-X-X--9-9--11-11-11-11----------9-----X-X-X--9-9--11-11-11-11-----|
D|--7-7-8--9--9--9--X-X-X--9-9--11-11-11-11-------9--9--9--X-X-X--9-9--11-11-11-11-----|
A|--7-7-8--9--7--9--X-X-X--7-7--9--9--9--9--------9--7--9--X-X-X--7-7--9--9--9--9------|
E|--5-5-6--7-----7--X-X-X-------------------------7-----7--X-X-X-----------------------|
       BOMBS AWAY         IT'S JUST ANOTHER DAY  OF IDLE THREATS THE SECRET OF THE DAY

E|----------------------------------------------------------------------------------------|
B|----------------------------------------------------------------------------------------|
G|-----9----------------------------------------------------------9-9---------------------|
D|--9--9--9---------------------7-7-7-7-----4-4-4-4----------9-9--9-9--9-9-9-9--9-9-9-----|
A|--9--7--9---------------------7-7-7-7-----4-4-4-4----------9-9--7-7--9-9-9-9--9-9-9-----|
E|--7-----7---------------------5-5-5-5-----2-2-2-2----------7-7-------7-7-7-7--7-7-7-----|
   AND I WOULDN'T SWEAT IT AND EVERYBODY'S BOUNCING OFF THE WALLS

[intro riff]
E|-----------------------------------------------------------------------|
B|-----------------------------------------------------------------------|
G|-----9------12-12-12-12--9-9-9-9------9------7-7-7--9--11-11-11-11-----|
D|--9--9--9---12-12-12-12--9-9-9-9---9--9--9---7-7-7--9--11-11-11-11-----|
A|--9--7--9---10-10-10-10--7-7-7-7---9--7--9---5-5-5--7--9--9--9--9------|
E|--7-----7--------------------------7-----7-----------------------------|

[verse]
E|-----------X-X-X-------------------------------------X-X-X-------------------------|
B|-----------X-X-X-------------------------------------X-X-X-------------------------|
G|-----9-----X-X-X--9-9--11-11-11-11-------------9-----X-X-X--9-9--11-11-11-11-------|
D|--9--9--9--X-X-X--9-9--11-11-11-11----------9--9--9--X-X-X--9-9--11-11-11-11-------|
A|--9--7--9--X-X-X--7-7--9--9--9--9-----------9--7--9--X-X-X--7-7--9--9--9--9--------|
E|--7-----7--X-X-X----------------------------7-----7--X-X-X-------------------------|
   CONCRETE KISS   COME ON AND DO THE TWIST  THE RADIO       MY LITTLE EXORCIST 

E|--------------------------------------------------------------------------------------|
B|--------------------------------------------------------------------------------------|
G|-----9----------------------------------------------------------9-9-------------------|
D|--9--9--9---------------------7-7-7-7-----4-4-4-4----------9-9--9-9--9-9-9-9--9-9-9---|
A|--9--7--9---------------------7-7-7-7-----4-4-4-4----------9-9--7-7--9-9-9-9--9-9-9---|
E|--7-----7---------------------5-5-5-5-----2-2-2-2----------7-7-------7-7-7-7--7-7-7---|
   WERE ALL GETTING p**sED AND EVERYBODY'S BOUNCING OFF THE WALLS


E|-----------------------------------------------------------------------------|
B|-----------------------------------------------------------------------------|
G|--9-9-9-9--9-9-9-9--9-9-9-9--9-9-9-9-----------------------------------------|
D|--9-9-9-9--9-9-9-9--9-9-9-9--9-9-9-9---9-9-9-9--9-9-9-9--9-9-9-9--9-9-9-9----|
A|--7-7-7-7--7-7-7-7--7-7-7-7--7-7-7-7---9-9-9-9--9-9-9-9--9-9-9-9--9-9-9-9----|
E|---------------------------------------7-7-7-7--7-7-7-7--7-7-7-7--7-7-7-7----|
   CAUSE IT'S ALL    AND I WANT TO BE   I GOT SATAN RIDING NEXT TO ME
   THAT I WANT       FREE

E|------------------------------------------------------------------------------------|
B|------------------------------------------------------------------------------------|
G|------------------------------------------------------------------------------------|
D|--6-6-6-6--6-6-6-6--9-9-9-9--9-9-9-9---7-7-7-7--7-7-7-7------4-4-4-4--4-4-4-4-------|
A|--6-6-6-6--6-6-6-6--9-9-9-9--9-9-9-9---7-7-7-7--7-7-7-7------4-4-4-4--4-4-4-4-------|
E|--4-4-4-4--4-4-4-4--7-7-7-7--7-7-7-7---5-5-5-5--5-5-5-5------2-2-2-2--2-2-2-2-------|
   CAUSE WERE ALL    AND WE'LL GIVE     CHASING FIREFLIES AND ZEROS
   DIRTY FREAKS      YOU THE CREEPS

[Solo]
E|----------------------------------------|
B|----------------------------------------|
G|-----9------12-12-12-12--9-9-9-9--------|guitar 1
D|--9--9--9---12-12-12-12--9-9-9-9--------|
A|--9--7--9---10-10-10-10--7-7-7-7--------|
E|--7-----7-------------------------------|

E|------------------------------------------------------------------------|
B|--12--12--12--12----12--12--12--12----8---8---8---8-----5--5--5--5------|
G|--14b-14b-14b-14b---14b-14b-14b-14b---10b-10b-10b-10b---7b-7b-7b-7b-----|guitar 2
D|------------------------------------------------------------------------|
A|------------------------------------------------------------------------|
E|------------------------------------------------------------------------|

E|--------------------------------------|
B|--------------------------------------|
G|-----9------7-7-7--9--11-11-11-11-----|guitar 1
D|--9--9--9---7-7-7--9--11-11-11-11-----|
A|--9--7--9---5-5-5--7--9--9--9--9------|
E|--7-----7-----------------------------|

E|-------------------------------------------------------------------------|
B|--12--12--12--12----12--12--12--12----10--10--10--10----7--7--7--7-------|
G|--14b-14b-14b-14b---14b-14b-14b-14b---12b-12b-12b-12b---9b-9b-9b-9b------|guitar 2
D|-------------------------------------------------------------------------|
A|-------------------------------------------------------------------------|
E|-------------------------------------------------------------------------|

E|----------------------------------------|
B|----------------------------------------|
G|-----9------12-12-12-12--9-9-9-9--------|guitar 1
D|--9--9--9---12-12-12-12--9-9-9-9--------|
A|--9--7--9---10-10-10-10--7-7-7-7--------|
E|--7-----7-------------------------------|

E|--------------------------------------------------------------------------|
B|--12--12--12--12----12--12--12--12----15--15--15--17----19--19--19--19----|
G|--14b-14b-14b-14b---14b-14b-14b-14b---17b-17b-17b-19b---21b-21b-21b-21b---|guitar 2
D|--------------------------------------------------------------------------|
A|--------------------------------------------------------------------------|
E|--------------------------------------------------------------------------|

E|------------------------------------------|
B|--0-0-0-2-3-2-0--0--2-2-2-2-2--4--7-7-7---|
G|------------------------------------------|guitar 2
D|------------------------------------------|
A|------------------------------------------|
E|------------------------------------------|


E|-----------------------------------------------------------------------------|
B|-----------------------------------------------------------------------------|
G|--9-9-9-9--9-9-9-9--9-9-9-9--9-9-9-9-----------------------------------------|
D|--9-9-9-9--9-9-9-9--9-9-9-9--9-9-9-9---9-9-9-9--9-9-9-9--9-9-9-9--9-9-9-9----|
A|--7-7-7-7--7-7-7-7--7-7-7-7--7-7-7-7---9-9-9-9--9-9-9-9--9-9-9-9--9-9-9-9----|
E|---------------------------------------7-7-7-7--7-7-7-7--7-7-7-7--7-7-7-7----|
   CAUSE IT'S ALL    AND I WANT TO BE   I GOT SATAN RIDING NEXT TO ME
   THAT I WANT       FREE

E|------------------------------------------------------------------------------------|
B|------------------------------------------------------------------------------------|
G|------------------------------------------------------------------------------------|
D|--6-6-6-6--6-6-6-6--9-9-9-9--9-9-9-9---7-7-7-7--7-7-7-7------4-4-4-4--4-4-4-4-------|
A|--6-6-6-6--6-6-6-6--9-9-9-9--9-9-9-9---7-7-7-7--7-7-7-7------4-4-4-4--4-4-4-4-------|
E|--4-4-4-4--4-4-4-4--7-7-7-7--7-7-7-7---5-5-5-5--5-5-5-5------2-2-2-2--2-2-2-2-------|
   CAUSE WERE ALL    AND WE'LL GIVE     CHASING FIREFLIES AND ZEROS
   DIRTY FREAKS      YOU THE CREEPS

[outro]
E|-------------------X-X-X--------------------------------------------------|
B|-------------------X-X-X--------------------------------------------------|
G|-------------9-----X-X-X---12-12--9-9-9-9------9------7-7-7--9---11-------|
D|--7-7-8---9--9--9--X-X-X---12-12--9-9-9-9---9--9--9---7-7-7--9---11-------|
A|--7-7-8---9--7--9--X-X-X---10-10--7-7-7-7---9--7--9---5-5-5--7---9--------|
E|--5-5-6---7-----7--X-X-X--------------------7-----7-----------------------|

E|-----------------------------------------------------------------------|
B|-----------------------------------------------------------------------|
G|-----9------12-12-12-12--9-9-9-9------9------7-7-7--9--11-11-11-11-----|
D|--9--9--9---12-12-12-12--9-9-9-9---9--9--9---7-7-7--9--11-11-11-11-----|
A|--9--7--9---10-10-10-10--7-7-7-7---9--7--9---5-5-5--7--9--9--9--9------|
E|--7-----7--------------------------7-----7-----------------------------|

E|-----------------------------------------------------------------------|
B|-----------------------------------------------------------------------|
G|-----9------12-12-12-12--9-9-9-9------9------7-7-7--9--11-11-11-11-----|
D|--9--9--9---12-12-12-12--9-9-9-9---9--9--9---7-7-7--9--11-11-11-11-----|
A|--9--7--9---10-10-10-10--7-7-7-7---9--7--9---5-5-5--7--9--9--9--9------|
E|--7-----7--------------------------7-----7-----------------------------|

E|-----------------------------------|
B|-----------------------------------|
G|-----9-----9-----------------------|
D|--9--9--9--9--9----7-7-8-9---------|
A|--9--7--9--7--9----7-7-8-9---------|
E|--7-----7-----7----5-5-6-7---------|            
Submit corrections


        Bouncing Off The Wall  lessons Hard to play? Try these video lessons and learn fast Bouncing Off The Wall  lessons
        
↑ Back to top | Tablatures and chords for acoustic guitar and electric guitar, ukulele, drums are parodies/interpretations of the original songs. You may use it for private study, scholarship, research or language learning purposes only