» » »

Green Day - Bang Bang Tabs

Artists:  A B C D E F G H I J K L M N O P Q R S T U V W X Y Z # 

Bang Bang Tabs

(ver. 1) Click to play this song!
Green Day
 Rating:
4.4/5 (5 votes)

 Bang Bang  lessons Tabs too difficult? Try these video lessons and learn fast
 
                [Bass Intro]

G|--------------------------------------------------------------------------------------|
D|--------------------------------------------------------------------------------------|
A|------------8-8-8-8-8--5-5-5-5-5--5-5-5-5-5-----------8-8-8-8-8--3-3-3-3-3--7-7-7-7-7-|
E|-5-5-5-5-5----------------------------------5-5-5-5-5---------------------------------|

G|-------------------------------------------------------------------------------------|
D|-------------------------------------------------------------------------------------|
A|-------------8-8-8-8-8--5-5-5-5-5--5-5-5-5-5-------------8-8-8-8-8--3-3-3-3-3--7-----|
E|-5-5-5-5-5-------------------------------------5-5-5-5-5-----------------------------|


[Guitar Intro]

e|--------------------------------------------------------|
B|--------------------------------------------------------|
G|------------10-10-10-10-10--7-7-7-7-7--7-7-7-7-7--------|
D|-7-7-7-7-7--10-10-10-10-10--7-7-7-7-7--7-7-7-7-7--------|
A|-7-7-7-7-7---8--8--8--8--8--5-5-5-5-5--5-5-5-5-5--------|
E|-5-5-5-5-5----------------------------------------------|

e|--------------------------------------------------------|
B|--------------------------------------------------------|
G|------------10-10-10-10-10------------------9-9-9-9-9---|
D|-7-7-7-7-7--10-10-10-10-10--10-10-10-10-10--9-9-9-9-9---|
A|-7-7-7-7-7---8--8--8--8--8--10-10-10-10-10--7-7-7-7-7---|
E|-5-5-5-5-5-------------------8--8--8--8--8--------------|


e|--------------------------------------------------------|
B|--------------------------------------------------------|
G|------------10-10-10-10-10--7-7-7-7-7--7-7-7-7-7--------|
D|-7-7-7-7-7--10-10-10-10-10--7-7-7-7-7--7-7-7-7-7--------|
A|-7-7-7-7-7---8--8--8--8--8--5-5-5-5-5--5-5-5-5-5--------|
E|-5-5-5-5-5----------------------------------------------|

e|--------------------------------------------------------|
B|--------------------------------------------------------|
G|------------10-10-10-10-10------------------9-----------|
D|-7-7-7-7-7--10-10-10-10-10--10-10-10-10-10--9-----------|
A|-7-7-7-7-7---8--8--8--8--8--10-10-10-10-10--7-----------|
E|-5-5-5-5-5-------------------8--8--8--8--8--------------|

e|---------------------------------------------------------------|
B|---------------------------------------------------------------|
G|--------------7-7-7------------------------7-7-7---------------|
D|--5-7--X-X-X--7-7-7--7--X-X-X--5-7--X-X-X--7-7-7--7--X-X-X-----|
A|--5-7--X-X-X--5-5-5--7--X-X-X--5-7--X-X-X--5-5-5--7--X-X-X-----|
E|--3-5--X-X-X---------5--X-X-X--3-5--X-X-X---------5--X-X-X-----|


[Verse 1]

e|------------------------------------------------------------------------------|
B|------------------------------------------------------------------------------|
G|--------------7-7-7--------------------------------7-7-7-7-7------------------|
D|--5-7--X-X-X--7-7-7--7--X-X-X--7-7-7----5-5-5-5-5--7-7-7-7-7---7-7-7-7-7-7----|
A|--5-7--X-X-X--5-5-5--7--X-X-X--7-7-7----5-5-5-5-5--5-5-5-5-5---7-7-7-7-7-7----|
E|--3-5--X-X-X---------5--X-X-X--5-5-5----3-3-3-3-3--------------5-5-5-5-5-5----|
   I GET MY    I WANT TO START  I WANT TO DANCE       I'M ON THE VIDEO
   KICKS AND   A RAGER          LIKE

e|----------------------------------------------------------------------------------------|
B|----------------------------------------------------------------------------------------|
G|---------------7-7-7------------------------------------7-7-7-7-7-----------------------|
D|--5-7--X-X-X---7-7-7--7--X-X-X--7-7-7--------5-5-5-5-5--7-7-7-7-7-----7-7-7-7-7--7-7-7--|
A|--5-7--X-X-X---5-5-5--7--X-X-X--7-7-7--------5-5-5-5-5--5-5-5-5-5-----7-7-7-7-7--7-7-7--|
E|--3-5--X-X-X----------5--X-X-X--5-5-5--------3-3-3-3-3----------------5-5-5-5-5--5-5-5--|
    I GOT A      FOR VIOLENT      I'M SWEATING BULLETS    LIKE A MODERN ROMEO
    FEVER        BEHAVIOR


[Chorus]

e|-------------------------------------------------------------------|
B|-------------------------------------------------------------------|
G|-------------------10-10-10-10-10-10---7-7-7-7-7-7--7-7-7-7-7-7----|
D|--7--X-X-X-X-X-X---10-10-10-10-10-10---7-7-7-7-7-7--7-7-7-7-7-7----|
A|--7--X-X-X-X-X-X----8--8--8--8--8--8---5-5-5-5-5-5--5-5-5-5-5-5----|
E|--5--X-X-X-X-X-X---------------------------------------------------|
    BANG, BANG        GIVE ME FAME       SHOOT ME UP TO ENTERTAIN

e|-------------------------------------------------------------------|
B|-------------------------------------------------------------------|
G|----------------------------------10-10-10-10-10---7-7-7-7-7-7-----|
D|--7-7-7-7-7---10-10-10-10-10-10---10-10-10-10-10---7-7-7-7-7-7-----|
A|--7-7-7-7-7---10-10-10-10-10-10----8--8--8--8--8---5-5-5-5-5-5-----|
E|--5-5-5-5-5----8--8--8--8--8--8------------------------------------|
    I' AM A     SEMI AUTO           MATIC LONELY     BOY

e|-------------------------------------------------------------------|
B|-------------------------------------------------------------------|
G|-------------------10-10-10-10-10-10---7-7-7-7-7-7--7-7-7-7-7-7----|
D|--7--X-X-X-X-X-X---10-10-10-10-10-10---7-7-7-7-7-7--7-7-7-7-7-7----|
A|--7--X-X-X-X-X-X----8--8--8--8--8--8---5-5-5-5-5-5--5-5-5-5-5-5----|
E|--5--X-X-X-X-X-X---------------------------------------------------|
    GUILTY           HALL OF FAME        GIVE ME DEATH OR GIVE ME HEAD

e|----------------------------------------------------------------------|
B|----------------------------------------------------------------------|
G|-------------------------------------10-10-10-10--10-10-10-10---7-----|
D|--7-7-7-7-7------10-10-10-10-10-10---10-10-10-10--10-10-10-10---7-----|
A|--7-7-7-7-7------10-10-10-10-10-10----8--8--8--8---8--8--8--8---5-----|
E|--5-5-5-5-5-------8--8--8--8--8--8------------------------------------|
    DADDY'S LITTLE PSYCHO AND          MOMMY'S LITTLE SOLDIER 

e|--------------------------------------------------------|
B|--------------------------------------------------------|
G|------------10-10-10-10-10--7-7-7-7-7--7-7-7-7-7--------|
D|-7-7-7-7-7--10-10-10-10-10--7-7-7-7-7--7-7-7-7-7--------|
A|-7-7-7-7-7---8--8--8--8--8--5-5-5-5-5--5-5-5-5-5--------|
E|-5-5-5-5-5----------------------------------------------|

e|--------------------------------------------------------|
B|--------------------------------------------------------|
G|------------10-10-10-10-10------------------9-----------|
D|-7-7-7-7-7--10-10-10-10-10--10-10-10-10-10--9-----------|
A|-7-7-7-7-7---8--8--8--8--8--10-10-10-10-10--7-----------|
E|-5-5-5-5-5-------------------8--8--8--8--8--------------|


[Verse 2]

e|--------------------------------------------------------------------------------------|
B|--------------------------------------------------------------------------------------|
G|---------------7-7-7------------------------------------7-7-7-7-7---------------------|
D|--5-7--X-X-X---7-7-7--7--X-X-X--7-7-7--------5-5-5-5-5--7-7-7-7-7---7-7-7-7-7--7-7-7--|
A|--5-7--X-X-X---5-5-5--7--X-X-X--7-7-7--------5-5-5-5-5--5-5-5-5-5---7-7-7-7-7--7-7-7--|
E|--3-5--X-X-X----------5--X-X-X--5-5-5--------3-3-3-3-3--------------5-5-5-5-5--5-5-5--|
    I TESTIFY   LIKE A LULLABYE                BROADCASTING LIVE AND IT'S ON MY RADIO
                OF MEMORIES

e|--------------------------------------------------------------------------------------|
B|--------------------------------------------------------------------------------------|
G|---------------7-7-7------------------------------------7-7-7-7-7---------------------|
D|--5-7--X-X-X---7-7-7--7--X-X-X--7-7-7--------5-5-5-5-5--7-7-7-7-7---7-7-7-7-7--7-7-7--|
A|--5-7--X-X-X---5-5-5--7--X-X-X--7-7-7--------5-5-5-5-5--5-5-5-5-5---7-7-7-7-7--7-7-7--|
E|--3-5--X-X-X----------5--X-X-X--5-5-5--------3-3-3-3-3--------------5-5-5-5-5--5-5-5--|
  I GOT MY PHOTO  I GOT MY VIETNAM             I LOVE A LIE JUST LIKE ANYBODY ELSE
  BOMB


[Chorus]

e|-------------------------------------------------------------------|
B|-------------------------------------------------------------------|
G|-------------------10-10-10-10-10-10---7-7-7-7-7-7--7-7-7-7-7-7----|
D|--7--X-X-X-X-X-X---10-10-10-10-10-10---7-7-7-7-7-7--7-7-7-7-7-7----|
A|--7--X-X-X-X-X-X----8--8--8--8--8--8---5-5-5-5-5-5--5-5-5-5-5-5----|
E|--5--X-X-X-X-X-X---------------------------------------------------|
    BANG, BANG        GIVE ME FAME       SHOOT ME UP TO ENTERTAIN

e|-------------------------------------------------------------------|
B|-------------------------------------------------------------------|
G|----------------------------------10-10-10-10-10---7-7-7-7-7-7-----|
D|--7-7-7-7-7---10-10-10-10-10-10---10-10-10-10-10---7-7-7-7-7-7-----|
A|--7-7-7-7-7---10-10-10-10-10-10----8--8--8--8--8---5-5-5-5-5-5-----|
E|--5-5-5-5-5----8--8--8--8--8--8------------------------------------|
    I'AM A       SEMI AUTO           MATIC LONELY    BOY

e|-------------------------------------------------------------------|
B|-------------------------------------------------------------------|
G|-------------------10-10-10-10-10-10---7-7-7-7-7-7--7-7-7-7-7-7----|
D|--7--X-X-X-X-X-X---10-10-10-10-10-10---7-7-7-7-7-7--7-7-7-7-7-7----|
A|--7--X-X-X-X-X-X----8--8--8--8--8--8---5-5-5-5-5-5--5-5-5-5-5-5----|
E|--5--X-X-X-X-X-X---------------------------------------------------|
    YOU'RE DEAD      I'M WELL FED        GIVE ME DEATH OR GIVE ME HEAD

e|-------------------------------------------------------------------|
B|-------------------------------------------------------------------|
G|-------------------------------------10-10-10-10-10-10---7-7-7-7---|
D|--7-7-7-7-7-7----10-10-10-10-10-10---10-10-10-10-10-10---7-7-7-7---|
A|--7-7-7-7-7-7----10-10-10-10-10-10----8--8--8--8--8--8---5-5-5-5---|
E|--5-5-5-5-5-5-----8--8--8--8--8--8---------------------------------|
    BROADCASTING   FROM MY ROOM        AND PLAYING WITH MY TOYS


[Bridge]

e|-----------------------------------------------------|
B|-----------------------------------------------------|
G|------------------------------------7-7-7-7-7--------|
D|-7-7-7-7-7--7-7-7-7-7---4-4-4-4-4---7-7-7-7-7--------|
A|-7-7-7-7-7--7-7-7-7-7---4-4-4-4-4---5-5-5-5-5--------|
E|-5-5-5-5-5--5-5-5-5-5---2-2-2-2-2--------------------|
   I WANT TO BE A         CELEBRITY   MARTYR

e|-----------------------------------------------------|
B|-----------------------------------------------------|
G|------------------------------------7-7-7-7-7--------|
D|-7-7-7-7-7--7-7-7-7-7---4-4-4-4-4---7-7-7-7-7--------|
A|-7-7-7-7-7--7-7-7-7-7---4-4-4-4-4---5-5-5-5-5--------|
E|-5-5-5-5-5--5-5-5-5-5---2-2-2-2-2--------------------|
   THE LEADING MAN IN MY  OWN PRIVATE DRAMA 

e|-----------------------------------------------------|
B|-----------------------------------------------------|
G|------------------------------------7-7-7-7-7--------|
D|-7-7-7-7-7--7-7-7-7-7---4-4-4-4-4---7-7-7-7-7--------|
A|-7-7-7-7-7--7-7-7-7-7---4-4-4-4-4---5-5-5-5-5--------|
E|-5-5-5-5-5--5-5-5-5-5---2-2-2-2-2--------------------|
   HURRAH, HURRAH THE     HERO OF THE HOUR

e|--------------------------------------------------------------------|
B|--------------------------------------------------------------------|
G|-------------------------------------10-10-10-10--10-10-10-10--7----|
D|--7-7-7-7-7-7----10-10-10-10-10-10---10-10-10-10--10-10-10-10--7----|
A|--7-7-7-7-7-7----10-10-10-10-10-10----8--8--8--8---8--8--8--8--5----|
E|--5-5-5-5-5-5-----8--8--8--8--8--8----------------------------------|
    DADDY'S LITTLE PSYCHO AND          MOMMY'S LITTLE SOLDIER 


[Solo]

e|------------------------------------------------------------------------------|
B|------------------------------------------------------------------------------|
G|--9--9-9-9--10-13--13-13-13--14--16--16-16-16--14-13--13-13-13--13------------|
D|------------------------------------------------------------------------------|
A|--7--7-7-7---8-11--11-11-11--12--14--14-14-14--12-11--11-11-11--11------------|
E|------------------------------------------------------------------------------|

e|-----------------------------------------------------------------------|
B|-----------------------------------------------------------------------|
G|--17--17-17-17--16-14--14-14-14--14---9-10-9-7-------------------------|
D|-------------------------------------------------9-10-9-7--------------|
A|--15--15-15-15--14-12--12-12-12--12---7--8-7-5-------------------------|
E|-------------------------------------------------7--8-7-5--------------|

e|------------------------------------------------------------------------------|
B|------------------------------------------------------------------------------|
G|--9--9-9-9--10-13--13-13-13--14--16--16-16-16--14-13--13-13-13--13------------|
D|------------------------------------------------------------------------------|
A|--7--7-7-7---8-11--11-11-11--12--14--14-14-14--12-11--11-11-11--11------------|
E|------------------------------------------------------------------------------|

e|-----------------------------------------------------------------------|
B|-----------------------------------------------------------------------|
G|--17--17-17-17--16-14--14-14-14--14---9-10-9-7-------------------------|
D|-------------------------------------------------9-10-9-7--------------|
A|--15--15-15-15--14-12--12-12-12--12---7--8-7-5-------------------------|
E|-------------------------------------------------7--8-7-5--------------|

e|-------------------------------------------------------------------------|
B|-------------------------------------------------------------------------|
G|--9-9-9-9--9-9-9-9-----10-10-10-10---9-9-9-9--9-9-9-9--9-9-9-9------3----|
D|-----------------------------------------------------------------3--3----|
A|--7-7-7-7--7-7-7-7------8--8--8--8---7-7-7-7--7-7-7-7--7-7-7-7---3--1----|
E|-----------------------------------------------------------------1-------|
    I WANT TO BE LIKE THE SOLDIERS ON THE SCREEN IT'S MY PRIVATE  HO  LY

e|------------------------------------------------------------------------------|
B|------------------------------------------------------------------------------|
G|--9-9-9-9--9-9-9-9-----10-10-10-10---9-9-9-9--9-9-9-9--9-9-9-9------------3---|
D|----------------------------------------------------------------3---------3---|
A|--7-7-7-7--7-7-7-7------8--8--8--8---7-7-7-7--7-7-7-7--7-7-7-7--3---------1---|
E|----------------------------------------------------------------1-------------|
    OH BABY, BABY THIS IS VIVA VENDETTA FOR THIS IS LOVE OR IT'S  WORLD WAR ZERO

{guitar intro}

e|--------------------------------------------------------|
B|--------------------------------------------------------|
G|------------10-10-10-10-10--7-7-7-7-7--7-7-7-7-7--------|
D|-7-7-7-7-7--10-10-10-10-10--7-7-7-7-7--7-7-7-7-7--------|
A|-7-7-7-7-7---8--8--8--8--8--5-5-5-5-5--5-5-5-5-5--------|
E|-5-5-5-5-5----------------------------------------------|

e|--------------------------------------------------------|
B|--------------------------------------------------------|
G|------------10-10-10-10-10------------------9-9-9-9-9---|
D|-7-7-7-7-7--10-10-10-10-10--10-10-10-10-10--9-9-9-9-9---|
A|-7-7-7-7-7---8--8--8--8--8--10-10-10-10-10--7-7-7-7-7---|
E|-5-5-5-5-5-------------------8--8--8--8--8--------------|

e|--------------------------------------------------------|
B|--------------------------------------------------------|
G|------------10-10-10-10-10--7-7-7-7-7--7-7-7-7-7--------|
D|-7-7-7-7-7--10-10-10-10-10--7-7-7-7-7--7-7-7-7-7--------|
A|-7-7-7-7-7---8--8--8--8--8--5-5-5-5-5--5-5-5-5-5--------|
E|-5-5-5-5-5----------------------------------------------|

e|--------------------------------------------------------|
B|--------------------------------------------------------|
G|------------10-10-10-10-10------------------------------|
D|-7-7-7-7-7--10-10-10-10-10--10-10-10-10-10-10-----------|
A|-7-7-7-7-7---8--8--8--8--8--10-10-10-10-10-10-----------|
E|-5-5-5-5-5-------------------8--8--8--8--8--8-----------|


[Bridge]

e|-----------------------------------------------------|
B|-----------------------------------------------------|
G|------------------------------------7-7-7-7-7--------|
D|-7-7-7-7-7--7-7-7-7-7---4-4-4-4-4---7-7-7-7-7--------|
A|-7-7-7-7-7--7-7-7-7-7---4-4-4-4-4---5-5-5-5-5--------|
E|-5-5-5-5-5--5-5-5-5-5---2-2-2-2-2--------------------|
   I WANT TO BE A         CELEBRITY   MARTYR

e|-----------------------------------------------------|
B|-----------------------------------------------------|
G|------------------------------------7-7-7-7-7--------|
D|-7-7-7-7-7--7-7-7-7-7---4-4-4-4-4---7-7-7-7-7--------|
A|-7-7-7-7-7--7-7-7-7-7---4-4-4-4-4---5-5-5-5-5--------|
E|-5-5-5-5-5--5-5-5-5-5---2-2-2-2-2--------------------|
   THE LEADING MAN IN MY  OWN PRIVATE DRAMA 

e|-----------------------------------------------------|
B|-----------------------------------------------------|
G|------------------------------------7-7-7-7-7--------|
D|-7-7-7-7-7--7-7-7-7-7---4-4-4-4-4---7-7-7-7-7--------|
A|-7-7-7-7-7--7-7-7-7-7---4-4-4-4-4---5-5-5-5-5--------|
E|-5-5-5-5-5--5-5-5-5-5---2-2-2-2-2--------------------|
   HURRAH, HURRAH THE     HERO OF THE HOUR

e|--------------------------------------------------------------------|
B|--------------------------------------------------------------------|
G|----------------------------------10-10-10-10-10--7-7-7-7-7---------|
D|--7-7-7-7-7-----10-10-10-10-10----10-10-10-10-10--7-7-7-7-7---------|
A|--7-7-7-7-7-----10-10-10-10-10-----8--8--8--8--8--5-5-5-5-5---------|
E|--5-5-5-5-5------8--8--8--8--8--------------------------------------|
    DADDY'S LITTLE PSYCHO AND        MOMMY'S LITTLE SOLDIER 


[Bridge]

e|-----------------------------------------------------|
B|-----------------------------------------------------|
G|------------------------------------7-7-7-7-7--------|
D|-7-7-7-7-7--7-7-7-7-7---4-4-4-4-4---7-7-7-7-7--------|
A|-7-7-7-7-7--7-7-7-7-7---4-4-4-4-4---5-5-5-5-5--------|
E|-5-5-5-5-5--5-5-5-5-5---2-2-2-2-2--------------------|
   I WANT TO BE A         CELEBRITY   MARTYR

e|-----------------------------------------------------|
B|-----------------------------------------------------|
G|------------------------------------7-7-7-7-7--------|
D|-7-7-7-7-7--7-7-7-7-7---4-4-4-4-4---7-7-7-7-7--------|
A|-7-7-7-7-7--7-7-7-7-7---4-4-4-4-4---5-5-5-5-5--------|
E|-5-5-5-5-5--5-5-5-5-5---2-2-2-2-2--------------------|
   THE LEADING MAN IN MY  OWN PRIVATE DRAMA 

e|-----------------------------------------------------|
B|-----------------------------------------------------|
G|------------------------------------7-7-7-7-7--------|
D|-7-7-7-7-7--7-7-7-7-7---4-4-4-4-4---7-7-7-7-7--------|
A|-7-7-7-7-7--7-7-7-7-7---4-4-4-4-4---5-5-5-5-5--------|
E|-5-5-5-5-5--5-5-5-5-5---2-2-2-2-2--------------------|
   HURRAH, HURRAH THE     HERO OF THE HOUR

e|--------------------------------------------------------------------|
B|--------------------------------------------------------------------|
G|----------------------------------10-10-10-10-10--9-----------------|
D|--7-7-7-7-7-----10-10-10-10-10----10-10-10-10-10--9-----------------|
A|--7-7-7-7-7-----10-10-10-10-10-----8--8--8--8--8--7-----------------|
E|--5-5-5-5-5------8--8--8--8--8--------------------------------------|
    DADDY'S LITTLE PSYCHO AND        MOMMY'S LITTLE SOLDIER            
Submit corrections


        Bang Bang  lessons Hard to play? Try these video lessons and learn fast Bang Bang  lessons
        
↑ Back to top | Tablatures and chords for acoustic guitar and electric guitar, ukulele, drums are parodies/interpretations of the original songs. You may use it for private study, scholarship, research or language learning purposes only