» » »

Green Day - 1,000 Hours Tabs

Artists:  A B C D E F G H I J K L M N O P Q R S T U V W X Y Z # 

1,000 Hours Tabs

(ver. 1) Click to play this song!
Green Day
 Rating:
4/5 (4 votes)

 1,000 Hours lessons Tabs too difficult? Try these video lessons and learn fast
 
                Intro
A D5/A
|-----------------|-----------------|-----------------|---------------|
|-----------------|-----------------|-----------------|---------------|
|-----------------|-----------------|-----------------|---2-2--2--2---|
|-2-2-2-0-0-0-0-0-|-2-2-2-0-0-0-0-0-|-2-2-2-0-0-0-0-0-|-2-2-2--2--2-0-|
|-0-0-0-0-0-0-0-0-|-0-0-0-0-0-0-0-0-|-0-0-0-0-0-0-0-0-|-0-0-0--0--0-0-|
|-----------------|-----------------|-----------------|---------------|

Verse
A D5/A A D5/A A D5/A A D5/A
|-----------------|-----------------|-----------------|-----------------|
|-----------------|-----------------|-----------------|-----------------|
|-----------------|-----------------|-----------------|-----------------|
|-2-2-2-0-0-0-0-0-|-2-2-2-0-0-0-0-0-|-2-2-2-0-0-0-0-0-|-2-2-2-0-0-0-0-0-|
|-0-0-0-0-0-0-0-0-|-0-0-0-0-0-0-0-0-|-0-0-0-0-0-0-0-0-|-0-0-0-0-0-0-0-0-|
|-----------------|-----------------|-----------------|-----------------|

Chorus
F#(11) G6
hold..........................|
|---------------|-------------|---------------|-------------|
|---------------|-------------|---------------|-------------|
|----3--3-3-3---|-4-----4-4---|----3--3-3-3---|---4---4-4---|
|-4--4--4-4-4-5-|-5-5---5-5---|-4--4--4-4-4-5-|-5-5---5-5---|
|-4--4--4-4-4-5-|-5-5---5-5---|-4--4--4-4-4-5-|-5-5---5-5---|
|-2--2--2-2-2-3-|-3-3---3-3---|-2--2--2-2-2-3-|-3-3---3-3---|

|-----------------|-----------------|-----------------|-----------------|
|-----------------|-----------------|-----------------|-----------------|
|-----------------|-----------------|-----------------|-----------------|
|-2-2-2-0-0-0-0-0-|-2-2-2-0-0-0-0-0-|-2-2-2-0-0-0-0-0-|-2-2-2-0-0-0-0-0-|
|-0-0-0-0-0-0-0-0-|-0-0-0-0-0-0-0-0-|-0-0-0-0-0-0-0-0-|-0-0-0-0-0-0-0-0-|
|-----------------|-----------------|-----------------|-----------------|
strong_____________________________

Bridge
F#(11) G6 F#(11) G6
|---0-------0-----|---0-------0-----|---0-------0-----|---0-------0-----|
|-----0-------0---|-----0-------0---|-----0-------0---|-----0-------0---|
|-------3-------3-|-------4-------4-|-------3-------3-|-------4-------4-|
|-4-------4-------|-5-------5-------|-4-------4-------|-5-------5-------|
|-----------------|-----------------|-----------------|-----------------|
|-----------------|-----------------|-----------------|-----------------|

Into solo
|-----------------|-----------------|-----------------|--------------------|
|-----------------|-----------------|-----------------|---------------1515-|
|-----------------|-----------------|-----------------|----------------x-x-|
|-2-2-2-0-0-0-0---|-2-2-2-0-0-0-0---|-2-2-2-0-0-0-0---|-2-2-2-0-0-0-0-1212-|
|-0-0-0-0-0-0-0-0-|-0-0-0-0-0-0-0-0-|-0-0-0-0-0-0-0-0-|-0-0-0-0-0-0-0--0-0-|
|-----------------|-----------------|-----------------|--------------------|

Solo (hold throughout)
|-----------------------|---------------------|
|15--15-141414-14-14-15-|-14--12---12-12-1010-|
|-x---x--x-x-x--x--x--x-|--x---x----x--x--x-x-|
|12--12-111111-11-11-12-|-11---9----9--9--7-7-|
|-0---0--0-0-0--0--0--0-|--0---0----0-----0-0-|
|-----------------------|---------------------|

|------------------------|------------------|
|-10--10--8-8-8--8--8--8-|-7---5----5--5--5-|
|--x---x--x-x-x--x--x--x-|-x---x----x--x--x-|
|--7---7--5-5-5--5--5--5-|-4---2----2--2--2-|
|--0---0--0-0-0--0--0--0-|-0---0----0--0--0-|
|------------------------|------------------|

|----------------------|------------------------|
|-5/7--7--7--7/8--8--8-|-8/10-10-10--12--12--12-|
|-x----x--x--x----x--x-|-x--x--x--x---x---x---x-|
|-2/4--4--4--4/5--5--5-|-5/-7--7--7---9---9---9-|
|-0----0--0--0----0--0-|-0-----0--0---0---0---0-|
|----------------------|------------------------|

|-------------------|---------------------|
|-14--14-15---15-14-|-14-15--15-14--14/15-|
|--x---x--x----x--x-|--x--x---x--x---x----|
|-11--11-12---12-11-|-11-12--12-11--11/12-|
|--0---0--0----0--0-|--0--0---0--0---0----|
|-------------------|---------------------|

|-------------------|--------------------|
|-15--15-14---14-12-|-12-14--15-15\14-14-|
|--x---x--x----x--x-|--x--x---x--x-----x-|
|-12--12-11---11--9-|--9-11--12-12\11-11-|
|--0---0--0----0--0-|--0--0---0--0-----0-|
|-------------------|--------------------|

|-----------------------|---------------------|
|-15-----14-(14)\12--12-|----14-----15--14/15-|
|--x------x-----------x-|-----x------x---x--x-|
|-12-----11-(11)\9----9\|\7--11-----12--11/12-|
|--0---0--0-----------0-|-----0---0--0---0----|
|-----------------------|---------------------|

|-------------------|----------------------|
|-15--15-14------12-|-(12)-10\8---8---8--8-|
|--x---x--x-------x-|-( )--x-----x---x--x-|
|-12--12-11-------9-|-( 9)--7\5---5---5--5-|
|--0---0--0----0--0-|-( 0)--0-----0---0--0-|
|-------------------|----------------------|

|----------------|--------------------------|
|-8------7-----5-|-(5)--5--5---5--5--5--2-2-|
|-x------x-----x-|-( )--x--x---x--x--x--2-2-|
|-5------4-----2-|-(2)--2--2---2--2--2--2-2-|
|-0---0--0-----0-|-(0)--0--0---0--0--0--0-0-|
|----------------|--------------------------|

Outro
A Asus A Asus A Asus A Asus
|----------------|----------------|----------------|----------------|
|-2----x---3-----|-2----x---3-----|-2--------3-----|-2--------3-----|
|-2----x---2-----|-2----x---2-----|-2--------2-----|-2--------2-----|
|-2----x---2-----|-2----x---2-----|-2--------2-----|-2--------2-----|
|-0--------0-----|-0--------0-----|-0--------0-----|-0--------0-----|
|----------------|----------------|----------------|----------------|
Ah.___________________________________________________
|----------------|----------------|----------------|----------------|
|-3--------------|-(3)------------|-(3)------------|-(3)------------|
|-2--------------|-(2)------------|-(2)------------|-(2)------------|
|-2--------------|-(2)------------|-(2)------------|-(2)------------|
|-0--------------|-(0)------------|-(0)------------|-(0)------------|
|----------------|----------------|----------------|----------------|

Structure
intro
verse (1) x4
chorusx2
verse riff x1
verse (2) x4
chorusx2
versex2
bridgex2
verse
into solo
solo
outro
            
Submit corrections


        1,000 Hours lessons Hard to play? Try these video lessons and learn fast 1,000 Hours lessons
        
↑ Back to top | Tablatures and chords for acoustic guitar and electric guitar, ukulele, drums are parodies/interpretations of the original songs. You may use it for private study, scholarship, research or language learning purposes only