» » »

Graham Coxon - Standing On My Own Again Tabs

Artists:  A B C D E F G H I J K L M N O P Q R S T U V W X Y Z # 

Standing On My Own Again Tabs

(ver. 3) Click to play this song!
Graham Coxon
 Rating:
4/5 (7 votes)

 Standing On My Own Again lessons Tabs too difficult? Try these video lessons and learn fast
 
                INTRO (after palm mute part)
e----222-------22222222-|
b----333-(x8)--33333333-|
g----222-------22222222-|
d----000-------00000000-|
a-----------------------|
E-----------------------|

MAIN RIFF
e--------------------2-222-0-2-22222222-|
b-888-7-8-888-7-8887-3-333-3-3-33333333-|
g-777-7-7-777-7-7777-2-222-2-2-22222222-|
d-555-5-5-555-5-5555-0-000-0-0-00000000-|
a---------------------------------------|
E---------------------------------------|

CHORUS
e-----5-33333333-2222-5-33333333-222222220000000033333333-----------------|
b7777-5-33333333-3333-5-33333333-333333330222222233333333-----------------|
g7777-6-44444444-4444-6-44444444-4444444402222222000000006666777799999999-|
d7777-7-55555555-4444-7-55555555-444444440222222200000000xxxxxxxxxxxxxxxx-|
a5555-7-55555555-2222-7-55555555-2222222200000000222222224444555577777777-|
E-----5-33333333------5-33333333-----------------33333333-----------------|

Back to Main Riff

Solo (P.M.)

e----------------------------------------------------------------------|
b----------------------------------------------------------------------|
g-----------------------------------------------------------4----------|
a--------------------------------------------------------555-5---------|
d-------------------------------5-5-5-5-5-5-5-5-5-5-5-5-5--------------|
E3-3-3-3-3-3-3-3-3-3-3-3-3-3-3-3---------------------------------------|

2.57
e-----------------------------------------------------------------------|
b-----------------------------------------------------------------------|
g19191919191918181818181816161616161614141414141411111111111121212121212
dxxxxxxxxxxxxxxxxxxxxxxxxxxxxxxxxxxxxxxxxxxxxxxxxxxxxxxxxxxxxxxxxxxxxxxx
a1717171717171616161616161414141414141212121212129 9 9 9 9 9101010101010
E-----------------------------------------------------------------------

e------------------------|
b------------------------|
g141414141414181818181818
dxxxxxxxxxxxxxxxxxxxxxxxx
a121212121212161616161616
E------------------------
            
Submit corrections


        Standing On My Own Again lessons Hard to play? Try these video lessons and learn fast Standing On My Own Again lessons
        
↑ Back to top | Tablatures and chords for acoustic guitar and electric guitar, ukulele, drums are parodies/interpretations of the original songs. You may use it for private study, scholarship, research or language learning purposes only