Home » G » Gotthard »

Gotthard - Father Is That Enough Tabs

Artists:  A B C D E F G H I J K L M N O P Q R S T U V W X Y Z # 

Father Is That Enough Tabs

(ver. 3) Click to play this song!
Gotthard
Tuning: Standard
                                                          A  
e|----------0h2--------------0----------------0-----------0-------0----------|
B|--------3-----3----------3---3---3--------3---3---3-----2---2-----2---2----|
G|------2---------2------2-------2--------2-------2-------2-----2-----2------|
D|---0----------------------------------------------------2-2----------------|
A|--------------------------------------------------------0------------------|
E|-------------------0h2--------------2h3------------------------------------|

e|----------0h2--------------0----------------0--------------3---------------|
B|--------3-----3----------3---3---3--------3---3---3-------3----------------|
G|------2---------2------2-------2--------2-------2--------0-----------------|
D|---0----------------------------------------------------3------------------|
A|-------------------------------------------------------2-------------------|
E|-------------------0h2--------------2h3------------------------------------|            
Submit corrections

↑ Back to top | Tablatures and chords for acoustic guitar and electric guitar, ukulele, drums are parodies/interpretations of the original songs. You may use it for private study, scholarship, research or language learning purposes only