» » »

Gorillaz - Empire Ants Chords

Artists:  A B C D E F G H I J K L M N O P Q R S T U V W X Y Z # 

Empire Ants Chords

(ver. 1) Click to play this song!
Gorillaz
 Rating:
4/5 (4 votes)

 Empire Ants lessons Tabs too difficult? Try these video lessons and learn fast
 
                Intro: G6 A6 G6 D x2


    G6                           A6
Oh, joys arise, the sun has come again to hold you
G6                              D
Sailing out the doldrums of the week
    G6                              A6
The polyphonic prayer is here, it's all around you
G6                       D
 It's all around you out here
G6                                 A6
And if the whole world is crashing down on you
G6                                  A6
Fall through space, out of mind completely
          G6                           A6
Where the emptiness we leave behind on warm air rising
G6                         A6
 Those are the shadows far away
    G6                                A6
The falling of the whole empire, it's here to hold you
G6                              A6
Rolling out and haunted till it sinks

G6

Bm A6 x4

e|----------------------------------------------------|
B|----------------------------------------------------|
G|----------------------------------------------------|
D|----------4------------------------4----------------|
A|--5--5--5------------------5--5--5------------------|
E|------------7---7-7-7----------------7--7-7-7-7-7---|

e|----------------------------------------------------|
B|----------------------------------------------------|
G|----------------------------------------------------|
D|----------4------------------------4-----------9----|
A|--4--4--4------------------4--4--4------------------|
E|------------7--7-7--7----------------7--7---7-7-----|

Bm
 Little memories
      A6
 Your little feet working the machine
Bm
 Will it spin? Will it soar?
A6
 My little dream working the machine
Bm
Soothe like a wave
A6
 It passes far
Bm
 Closing in on the moon
A6
 From where we are

Bm A6 x4
            
Submit corrections


        Empire Ants lessons Hard to play? Try these video lessons and learn fast Empire Ants lessons
        
↑ Back to top | Tablatures and chords for acoustic guitar and electric guitar, ukulele, drums are parodies/interpretations of the original songs. You may use it for private study, scholarship, research or language learning purposes only