» » »

Gorillaz - Empire Ants Tabs

Artists:  A B C D E F G H I J K L M N O P Q R S T U V W X Y Z # 

Empire Ants Tabs

(ver. 1) Click to play this song!
Gorillaz
 Rating:
4/5 (4 votes)

 Empire Ants lessons Tabs too difficult? Try these video lessons and learn fast
 
                Empire Ants- Gorillaz
Tuning: E A D G B e

Guitar 1- capo on the first fret
Guitar 2- no capo

Verse 1

Guitar 1
E|--3--3---3-3--3--3--3-3-3-----2--2---2-2--2--2--2-2-2----------|
B|--3--3---3-3--3--3--3-3-3-----2--2---2-2--2--2--2-2-2----------|
G|--0--0---0-0--0--0--0-0-0-----2--2---2-2--2--2--2-2-2----------|
D|--0--0---0-0--0--0--0-0-0-----4--4---4-4--4--4--4-4-4----------|
A|--2--2---2-2--2--2--2-2-2-----0--0---0-0--0--0--0-0-0----------|
E|--3--3---3-3--3--3--3-3-3--------------------------------------|

Guitar 2
E|-(6)------------------/10--------------------------------------|
B|----------------------------8~---------------------------------|
G|---------------------------------------------------------------|
D|---------------------------------------------------------------|
A|---------------------------------------------------------------|
E|---------------------------------------------------------------|

Guitar 1
E|--3--3---3-3--3--3--3-3-3-----2--2---2-2--2--2--2-2-2----------|
B|--3--3---3-3--3--3--3-3-3-----3--3---3-3--3--3--3-3-3----------|
G|--0--0---0-0--0--0--0-0-0-----2--2---2-2--2--2--2-2-2----------|
D|--0--0---0-0--0--0--0-0-0-----4--4---4-4--4--4--4-4-4----------|
A|--2--2---2-2--2--2--2-2-2-----0--0---0-0--0--0--0-0-0----------|
E|--3--3---3-3--3--3--3-3-3--------------------------------------|

Guitar 2
E|---/8-(8)------------------------------------------------------|
B|----------------8-6-4-3-1------3-4~----------------------------|
G|---------------------------3-----------------------------------|
D|---------------------------------------------------------------|
A|---------------------------------------------------------------|
E|---------------------------------------------------------------|

Guitar 1
E|--0--0---0-0--0--0--0-0-0-----2--2---2-2--2--2--2-2-2----------|
B|--0--0---0-0--0--0--0-0-0-----2--2---2-2--2--2--2-2-2----------|
G|--0--0---0-0--0--0--0-0-0-----2--2---2-2--2--2--2-2-2----------|
D|--0--0---0-0--0--0--0-0-0-----4--4---4-4--4--4--4-4-4----------|
A|--2--2---2-2--2--2--2-2-2-----0--0---0-0--0--0--0-0-0----------|
E|--3--3---3-3--3--3--3-3-3--------------------------------------|

Guitar 2
E|---/8----------------------------------------------------------|
B|--------8~-----------------------------------------------------|
G|---------------------------------------------------------------|
D|---------------------------------------------------------------|
A|---------------------------------------------------------------|
E|---------------------------------------------------------------|

Guitar 1
E|--0--0---0-0--0--0--0-0-0--------------------------------------|
B|--0--0---0-0--0--0--0-0-0-----3--3---3-3--3--3--3-3-3----------|
G|--0--0---0-0--0--0--0-0-0-----2--2---2-2--2--2--2-2-2----------|
D|--0--0---0-0--0--0--0-0-0-----4--4---4-4--4--4--4-4-4----------|
A|--2--2---2-2--2--2--2-2-2--------------------------------------|
E|--3--3---3-3--3--3--3-3-3--------------------------------------|


Guitar 2
E|---------------------------------------------------------------|
B|--------------------------(4)/13-------------------------------|
G|---------------------------------------------------------------|
D|---------------------------------------------------------------|
A|---------------------------------------------------------------|
E|---------------------------------------------------------------|


Verse 2 Syth
E|--20p15--------------20p15-------------------------------------|
B|--------18p16--------------18p16-------------------------------|
G|----------------17-----------------17--------------------------|
D|-------------------17-----------------17-----------------------|
A|---------------------------------------------------------------|
E|---------------------------------------------------------------|

E|--20p15--------------------------------------------------------|
B|--------18p16--------------------------------------------------|
G|----------------17---------------------------------------------|
D|-------------------17------------------------------------------|
A|--------------------------15--15-15-17-------------------------|
E|---------------------------------------------------------------|

E|---------------------------------------------------------------|
B|--20p15---------------20p15------------------------------------|
G|--------17p15---------------17p15------------------------------|
D|----------------17-17----------------17-17---------------------|
A|---------------------------------------------------------------|
E|---------------------------------------------------------------|

E|---------------------------------------------------------------|
B|--20p15--------------------------------------------------------|
G|--------17p15--------------------------------------------------|
D|----------------17-17------------------------------------------|
A|------------------------------------13-------------------------|
E|------------------------15-15-15-15----------------------------|

Verse 2 Bass
E|---------------------------------------------------------------|
B|---------------------------------------------------------------|
G|---------------------------------------------------------------|
D|--------5-------------------5----------------------------------|
A|--6-6-6----3--3-3-3---6-6-6----3--3-3-3--3---------------------|
E|---------------------------------------------------------------|

E|---------------------------------------------------------------|
B|---------------------------------------------------------------|
G|---------------------------------------------------------------|
D|--------5-------------------5----------------------------------|
A|--5-5-5----3--3-3-3---5-5-5----3--3-3-3-3-3-3------------------|
E|---------------------------------------------------------------|

Verse 2 Guitar (Listen Very Closely)
E|--11-11-11-x-11--11----11-11-11--11----------------------------|
B|--11-11-11-x-11--11----11-11-11--11----------------------------|
G|---------------------------------------------------------------|
D|---------------------------------------------------------------|
A|---------------------------------------------------------------|
E|---------------------------------------------------------------|

E|--10-10-10-x-10--10----10-10-10--10----------------------------|
B|--10-10-10-x-10--10----10-10-10--10----------------------------|
G|---------------------------------------------------------------|
D|---------------------------------------------------------------|
A|---------------------------------------------------------------|
E|---------------------------------------------------------------|

Beautiful Song, this might not be fully correct, but this is my attempt at tabbing the 
            
Submit corrections


        Empire Ants lessons Hard to play? Try these video lessons and learn fast Empire Ants lessons
        
↑ Back to top | Tablatures and chords for acoustic guitar and electric guitar, ukulele, drums are parodies/interpretations of the original songs. You may use it for private study, scholarship, research or language learning purposes only