Home » G » Gorillaz »

Gorillaz - Clint Eastwood Bass

Artists:  A B C D E F G H I J K L M N O P Q R S T U V W X Y Z # 

Clint Eastwood Bass

(ver. 3) Click to play this song!
Gorillaz
RIFF
G---------------------------|
D---------------------------|
A----7--7---7----7--7---7---|
E-0-------7----0------7-----|

RIFF
G---------------------------|
D---------------------------|
A----7--7---7----7--7---7---|
E-0-------7----0------7-----|

RIFF
G---------------------------|
D---------------------------|
A----7--7---7----7--7---7---|
E-0-------7----0------7-----|
            
Submit corrections

↑ Back to top | Tablatures and chords for acoustic guitar and electric guitar, ukulele, drums are parodies/interpretations of the original songs. You may use it for private study, scholarship, research or language learning purposes only