Home » G » Gorillaz »

Gorillaz - Clint Eastwood Bass

Artists:  A B C D E F G H I J K L M N O P Q R S T U V W X Y Z # 

Clint Eastwood Bass

(ver. 2) Click to play this song!
Gorillaz
TUNING IS DROP D, THOUGH IT'S EASIER TO JUST DROP TO E FLAT

/ = Slide
~ = Let ring (for as long as possible)
x = Rest note (just to make the timing in the outro clear)

INTRO
G-----------------------------|
D-----------------------------|
A----6--6---6-----6--6---6----|
E-1/------8-----1/-----8------|

G-----------------------------|
D-----------------------------|
A----6--6---6-----6--6---7----|
E-1/------8-----1/-----9------|

RAP STARTS
G-----------------------------|-----------------------------|
D-----------------------------|-----------------------------|
A-----------------------------|-----------------------------|
E-1~-------9-8-1~---------9-8-|-1~-------9-8-1~---------9-8-|
THEN BACK TO INTRO

FILLS USED OCCASIONALLY
G-----------------------------|
D-----------------------------|
A----6--6---6----6--6---------|
E-1/------8----1/-----9-8-4-8-|

G-----------------------------|
D-----------------------------|
A----6--6---6----6--6---------|
E-1/------8----1/-------9-8-4-|

OUTRO
G---------------------------------|
D---------------------------------|
A---------5-5-5-x---------7-7-7-x-|
E-1-1-1-x---------4-4-4-x---------|

NB/ If you want to make up little fills of your own (this song can get quite repetitive, 
any of these notes:

G-----------------------------|
D-----------------------------|
A---------7-6-----------------|
E-9-8-4-1---------------------|

Please rate the tab, I'm pretty sure it's spot on (I know I at least got the notes 
which is saying more than any of the others).
            
Submit corrections

↑ Back to top | Tablatures and chords for acoustic guitar and electric guitar, ukulele, drums are parodies/interpretations of the original songs. You may use it for private study, scholarship, research or language learning purposes only