» » »

Gorillaz - 19 - 2000 Bass

Artists:  A B C D E F G H I J K L M N O P Q R S T U V W X Y Z # 

19 - 2000 Bass

(ver. 2) Click to play this song!
Gorillaz
 Rating:
4.4/5 (7 votes)

 19 - 2000 lessons Tabs too difficult? Try these video lessons and learn fast
 
                G-------------------------------|
D-------------5p2---------------|
A--------5p4--------------------|
E-----3-------------------------|
Part1

Part2
G------------------------------------|
D-------------7----------------------|
A--------7p6----7--------------------|
E-----5------------------------------|

Play part1 3 times for every part2
            
Submit corrections


        19 - 2000 lessons Hard to play? Try these video lessons and learn fast 19 - 2000 lessons
        
↑ Back to top | Tablatures and chords for acoustic guitar and electric guitar, ukulele, drums are parodies/interpretations of the original songs. You may use it for private study, scholarship, research or language learning purposes only