» » »

Gorillaz - 19 - 2000 Bass

Artists:  A B C D E F G H I J K L M N O P Q R S T U V W X Y Z # 

19 - 2000 Bass

(ver. 1) Click to play this song!
Gorillaz
 Rating:
4/5 (4 votes)

 19 - 2000 lessons Tabs too difficult? Try these video lessons and learn fast
 
                Part A
G|-----------------------------|
D|----------5---5-3-5----------|
A|------5----------------------|
E|--3--------------------------|


Part B
G|-----------------------------|
D|----------7---7-3-7----------|
A|------7----------------------|
E|--5--------------------------|

    very simple bass line, the order jus goes: A(x2), B(x1), A(1x)
    just repeat that for the whole song, theres a pause before "get the cool shoeshine" part
            
Submit corrections


        19 - 2000 lessons Hard to play? Try these video lessons and learn fast 19 - 2000 lessons
        
↑ Back to top | Tablatures and chords for acoustic guitar and electric guitar, ukulele, drums are parodies/interpretations of the original songs. You may use it for private study, scholarship, research or language learning purposes only