Home » G » Goo Goo Dolls »

Goo Goo Dolls - Naked Tabs

Artists:  A B C D E F G H I J K L M N O P Q R S T U V W X Y Z # 

Naked Tabs

(ver. 3) Click to play this song!
Goo Goo Dolls
Naked by the Goo Goo Dolls

Tune your b to c (ala So Far Away)

(intro)
e -0----0---0-0-0-0--0-----|-0---0-0-0--0-----------------
C -0----0---0-0-0-0--0h2p0-|-0---0-0-0--0-----------------
G -2----2---2-2-2-2--2-----|-2---2-2-4--2-----------------
D -3----3---3-3-3-3--3-----|-0---0-0-0--0-----------------
A -------------------------|-0---0-0-0--0-----------------
E -------------------------|------------------------------
(Play 4 times)

(verse)
e --------0-----|-----------------------------------------
C ---0-------0--|--------0---------0----------------------
G --------------|------5-----4(h5)------------------------
D -3------------|-----------------------------------------
A --------------|---0-------------------------------------
E --------------|-----------------------------------------
Yeah I'm fadin' 
And I call out 
No one hears me 
Never been, never felt, never thought I'd say a word

(bridge 1)
e --------------------------------------------------------
C --------------------------------------------------------
G --10-10-10-10-10-----------10-10-10-10-10---------------
D --10-10-10-10-10-7---------10-10-10-10-10---5-----------
A --8--8--8--8--8--7---------8--8--8--8--8----5-----------
E -----------------5--------------------------3-----------
                   Weighed                    down 

e --------------------------------------------------------
C --------------------------------------------------------
G --10-10-10-10-10-----------10-10-10-10-10---------------
D --10-10-10-10-10-7---------10-10-10-10-10---5-----------
A --8--8--8--8--8--7---------8--8--8--8--8----5-----------
E -----------------5--------------------------3-----------
                   Safe                       now 

(chorus)
(riff)
e ----------------------------|----------------------------
C -----0----0-----0-----0-----|-----0----0-----0-----0-----
G ----------------------------|----------------------------
D ---2----2-----2------2------|---2----2-----2------2------
A ------------0------3--------|------------0---------------
E -1----3---------------------|-1----3------------3--------
You're naked inside your fear 
You can't take back all those years
The shots in the dark from empty guns
Are never heard by anyone 
Never heard by anyone

(bridge 2)
G5-G5-G5-G5-G5-A5
F5-F5-F5-F5-F5-F5

(verse)
Yeah I'm hiding 
in the fallout 
Now I'm wasted 
They don't need me, don't want me, don't hear a word I say

(bridge 1)
Weighed down 
Safe now 

(chorus)
You're naked inside your fear
You can't take back all those years 
The shots in the dark from empty guns 
Are never heard by anyone 
Never heard by anyone

(solo - play intro underneath)

(break)
Inside your head 
No one's there 
And I don't think I'll ever be 
And I don't care

(chorus)
You're naked inside your fear
You can't take back all those years 
The shots in the dark from empty guns 
Are never heard by anyone 
Never heard by anyone 
G5-G5-G5-G5-G5-A5
F5-F5-F5-F5-F5-F5
By anyone 
G5-G5-G5-G5-G5-A5
F5-F5-F5-F5-F5-F5
By anyone
G5-G5-G5-G5-G5-A5
F5


Enjoy!
            
Submit corrections

↑ Back to top | Tablatures and chords for acoustic guitar and electric guitar, ukulele, drums are parodies/interpretations of the original songs. You may use it for private study, scholarship, research or language learning purposes only