Home » G » Goo Goo Dolls »

Goo Goo Dolls - Hey Tabs

Artists:  A B C D E F G H I J K L M N O P Q R S T U V W X Y Z # 

Hey Tabs

(ver. 2) Click to play this song!
Goo Goo Dolls
Hey by the Goo Goo Dolls

Tune B up a half step to C

Rhythm  Fig. 1 

e  ---------------------------------------------------------
C ----4-----3-----------------------------------------------
G ----4-----3----4---------2-----4-----6------4-------------
D ----2-----1----4---------2-----4-----6------4-------------
A ---------------2---------0-----2-----4------2-------------
E ----------------------------------------------------------


Rhythm Fig.2

e  ---------------------------------------------------------
C --------------------------------------------------4-------
G ------------4----4----------------------4----4----4-------
D ----6-------4----4----2----------6------4----4----2------- 
A ----6-------2----2----2----------6------2----2------------
E ----4-----------------0----------4------------------------

Intro: (Play Rhythm Fig. 1 - 5x)

1st Verse: (Play Rhythm Fig 2 - 2x)

I thought about you just last Saturday
My voice got cracked, I didn't know what to say
Down in the shade or maybe in the sun
And if you need it I think I got one

Chorus: (Play Rhythm Fig. 1 - 4x)

Where are you
And what's on your mind
Where are you
Am I wasting my time
Where are you 
And what's on your mind
I just want to know if I'm wasting my time

2nd Verse: (Play Rhythm Fig. 2 - 2x)

I snuck out of work to see her smile
I'll hold her hostage for a little while
I wrote a letter thought I'd let you know
I'm right behind you anytime you go

Chorus: (Play Rhythm Fig. 1 - 4x)

Where are you
And what's on your mind
Where are you
Am I wasting my time
Where are you 
And what's on your mind
I just want to know if I'm wasting my time




3rd Verse: (Play Rhythm Fig 2 - 2x)

My mind got busy round 3 a.m. or so
Crawled in your room through the back window
Hoped when you woke up you wouldn't be too mad
I hope I never wake up your old man 


Break: (Play 4x)

e  ---------------------------------------------------------
C -----------4--3-----------4--3----------4--3-------4--3---
G --------4--4--4--------4--4--4-------4--4--4----4--4--4---
D ---------------------------------------------------------- 
A --------------------0-------------2-----------------------
E ----2-----------------------------------------------------


End Break: (Play after 4th repeat of Break)
 
e  ------------------
C -------------------
G ----4---4---4------
D ----4---4---4------ 
A ----2---2---2------
E -------------------

Chorus: (Play Rhythm Fig. 1 - 4x) 

Where are you
And what's on your mind
Where are you
Am I wasting my time
Where are you 
And what's on your mind
I just want to know if I'm wasting my time


Outro: (Play Rhythm Fig. 1 & repeat till fade out)
            
Submit corrections

↑ Back to top | Tablatures and chords for acoustic guitar and electric guitar, ukulele, drums are parodies/interpretations of the original songs. You may use it for private study, scholarship, research or language learning purposes only