Home » G » Goo Goo Dolls »

Goo Goo Dolls - Eyes Wide Open Tabs

Artists:  A B C D E F G H I J K L M N O P Q R S T U V W X Y Z # 

Eyes Wide Open Tabs

(ver. 3) Click to play this song!
Goo Goo Dolls
"Eyes Wide Open"

Intro / Chorus:
-----------------------------
-----------------------------
---9--9--9--9-9--7--6--7--9--
---0--0--0--0-0--0--0--0--0--
-----------------------------
-----------------------------

-----------------------------
-----------------------------
---9--9--9--9-9--7--6--7--9--
---0--0--0--0-0--0--0--0--0--
-----------------------------
-----------------------------

--------------------------------
--------------------------------
---9--9--9--9-9--7--6--7--0-----
---0--0--0--0-0--0--0--0--0--7--
-----------------------------7--
-----------------------------5--


Verse:

I'm a fortunate son of a fortunate son
--------------------------------------
--------------------------------------
-------------------------7------------
-7\--4---------7--------7---------7--
-7\--4---------7--------5---------7--
-5\--2---------5------------------5--

Livin' large on the wrong side of town
--------------------------------------
--------------------------------------
--------------------------------------
4------7------------2--2-2--2--2--2---
4------7------------0--0-0--0--0--0---
2------5------------0--0-0--0--0--0---

I want to kick it all down
--------------------------------------
--------------------------------------
--11------9-----------7---------------
--11------9-----------5---------------
--9-------7-----------5---------------
--------------------------------------

Play the intro and chorus to this:

Eyes wide open. . .I can't see
------------------------------------
------------------------------------
9----9----9--9-----9-7-----6--7--9--
0----0----0--0-----0-0-----0--0--0--
------------------------------------
------------------------------------
            
Submit corrections

↑ Back to top | Tablatures and chords for acoustic guitar and electric guitar, ukulele, drums are parodies/interpretations of the original songs. You may use it for private study, scholarship, research or language learning purposes only