Home » G » Goo Goo Dolls »

Goo Goo Dolls - Ain't That Unusual Tabs

Artists:  A B C D E F G H I J K L M N O P Q R S T U V W X Y Z # 

Ain't That Unusual Tabs

(ver. 1) Click to play this song!
Goo Goo Dolls









[STANDARD TUNING]
    


Intro/Chorus
e|-------------------------------------------------|
B|-------------------------------------------------|
G|--------------444---------------------444-444----|
D|----666--222--444---6--4----666--222--444-444----|
A|----666--222--222---6--4----666--222--222-222----|
E|----444--000--------4--2----444--000-------------|


Versus
e|-------------------------------------------------|
B|-------------------------------------------------|
G|--------------444---------------------444-444----|
D|----666--222--444---6--4----666--222--444-444----|
A|----666--222--222---6--4----666--222--222-222----|
E|----444--000--------4--2----444--000-------------|
      xxx  xxx  xxx   x  x    xxx  xxx  xxx xxx



Pre-Chorus
e|-----------------------|      |-----------------------|
B|-----------------------|      |-----------------------|
G|-----------------------|      |-----------------------|
D|-----------------------|[3x]  |---222--666--444-444---|
A|---222--444--666-666---|      |---222--666--444-444---|   
E|---000--222--444-444---|      |---000--444--222-222---|


Bridge
e|--------------------------------------------------------------------------|
B|--------------------------------------------------------------------------|
G|--6-6-6-6--4-4-4-4--------------------6-6-6-6--4-4-4-4--------------------|
D|--6-6-6-6--4-4-4-4--2-2-2-2--4-4-4-4--6-6-6-6--4-4-4-4--6-6-6-6--2-2-2-2--|
A|--4-4-4-4--2-2-2-2--2-2-2-2--4-4-4-4--4-4-4-4--2-2-2-2--6-6-6-6--2-2-2-2--|
E|--------------------0-0-0-0--2-2-2-2--------------------4-4-4-4--0-0-0-0--|


---------------------------------------
-INTRO- [4x] 

-VERSE- [2x]
-Pre-Chorus-
-Chorus- [2x]

-VERSE- [2x]
-Pre-Chorus-
-CHORUS- [2x]

-VERSUS- [2x]

-INTRO-solo [2x] 

-BRIDGE-

-CHORUS- [until end of song]
---------------------------------------
            
Submit corrections

↑ Back to top | Tablatures and chords for acoustic guitar and electric guitar, ukulele, drums are parodies/interpretations of the original songs. You may use it for private study, scholarship, research or language learning purposes only