» » »

Godspeed You Black Emperor - The Dead Flag Blues Tabs

Artists:  A B C D E F G H I J K L M N O P Q R S T U V W X Y Z # 

The Dead Flag Blues Tabs

(ver. 2) Click to play this song!
Godspeed You Black Emperor
 Rating:
4.6/5 (11 votes)

 The Dead Flag Blues lessons Tabs too difficult? Try these video lessons and learn fast
 
                -------------------------------------------------------------------------------
                Godspeed You! Black Emperor - The Dead Flag Blues
-------------------------------------------------------------------------------


Tuning: E

The guitar parts start at 10:08 into the song. There are two guitars (and a bass but I 
it for guitar).
I haven't figured out the lead guitar, so feel free to e-mail me! :) I think it's pretty close.
Awesome band, awesome song.

Just play around with these chords.

          C          Am          F         Am

e|--------8-----------5----------1---------5---------------------------------------|
B|--------8-----------5----------1---------5---------------------------------------|
G|--------9-----------5----------2---------5---------------------------------------|
D|--------10----------7----------3---------7---------------------------------------|
A|--------10----------7----------3---------7---------------------------------------|
E|-5/7/8--x----8\7\5--x---5\3\1--x---1/3/5-x---------------------------------------|
   t t t       t t t      t t t      t t t

Stroke each chord just 1 time.


After a while, play it like this:

          C                     Am               F               Am

e|--------8--8-8--8-8-----------5-55-55----------1-11-11---------5-55-55-----------|
B|--------8--8-8--8-8-----------5-55-55----------1-11-11---------5-55-55-----------|
G|--------9--9-9--9-9-----------5-55-55----------2-22-22---------5-55-55-----------|
D|--------10-1010-1010----------7-77-77----------3-33-33---------7-77-77-----------|
A|--------10-1010-1010----------7-77-77----------3-33-33---------7-77-77-----------|
E|-5/7/8--8--8-8--8-8----8\7\5--5-55-55---5\3\1--1-11-11---1/3/5-5-55-55-----------|
   t t t                 t t t            t t t            t t t

Play each chord 5 times, in this motion: down, down-up, down-up.


| /  slide up
| \  slide down
| x  Mute note
| t  Play with your thumb

===================================================================================
            
Submit corrections


        The Dead Flag Blues lessons Hard to play? Try these video lessons and learn fast The Dead Flag Blues lessons
        
↑ Back to top | Tablatures and chords for acoustic guitar and electric guitar, ukulele, drums are parodies/interpretations of the original songs. You may use it for private study, scholarship, research or language learning purposes only