» » »

Godspeed You Black Emperor - East Hastings Tabs

Artists:  A B C D E F G H I J K L M N O P Q R S T U V W X Y Z # 

East Hastings Tabs

(ver. 3) Click to play this song!
Godspeed You Black Emperor
 Rating:
4/5 (4 votes)

 East Hastings lessons Tabs too difficult? Try these video lessons and learn fast
 
                Band/Artist: Godspeed You! Black Emperor


Part I

“The Sad Mafioso...” 

Starts at 2:16


Repeat 2x

E----------------------------------------------------------|
B----------------------------------------------------------|
G---------6-6-6\5-5--------------6-6-6---------------------|
D--------------------------------------7-7-----------------|
A----------------------------------------------------------|
E---6----------------------6-------------------------------|



E----------------------------------------------------------|
B----------------------------------------------------------|
G---------6-6-6/8-8--------------6-6-6---------------------|
D--------------------------------------8-8-----------------|
A----------------------------------------------------------|
E---6----------------------6-------------------------------|


Part II

“The Sad Mafioso...”

Starts at 4:30


Repeat 2x


E----------------------------------------------------------|
B---------6-6-6-7-4--------------4-4-4-6-------------------|
G----------------------------------------6-----------------|
D----------------------------------------------------------|
A----------------------------------------------------------|
E---6----------------------6-------------------------------|



E----------------------------------------------------------|
B----------------------------------------------------------|
G---------6-6-6-8-5--------------5-5-5^--------------------|
D--------------------------------------8-------------------|
A----------------------------------------------------------|
E---6----------------------6-------------------------------|


Repeat Part I

“The Sad Mafioso...”

Starts at 5:09 (tempo starts to pick up)


Repeat 2x




Repeat Part II

“The Sad Mafioso...”

Starts at 5:43


Repeat 2x




Repeat Part I

“The Sad Mafioso...” 

Starts at 6:16


Repeat 2x




Part III

“The Sad Mafioso...”

Starts at 6:49

Repeat 2x

E---------------------------------------------------------------------------|
B---6h7p6-6h7p6-6h7p6-6h7p6-7p6\4-----4h6p4-4h6p4-4h6p4-4h6p4-6p4-----------|
G-----------------------------------------------------------------6---------|
D---------------------------------------------------------------------------|
A---------------------------------------------------------------------------|
E---------------------------------------------------------------------------|

E---------------------------------------------------------------------------|
B---------------------------------------------------------------------------|
G---6h8p6-6h8p6-6h8p6-6h8p6-8p6\5-----5h6p5-5h6p5-5h6p5-5h6p5-6p5-----------|
D-----------------------------------------------------------------8---------|
A---------------------------------------------------------------------------|
E---------------------------------------------------------------------------|

BREAK: Strings/Orchestra
7:21 - 8:22

(7:21 - 7:34 and 8:05 - 8:22)

E---------------------------------------------------------------------------|
B---------------------------------------------------------------------------|
G---------------------------------------------------------------------------|
D---------------------------------------------------------------------------|
A---8-8-9-8--8-8-9-8--6-6-8-6--6-6-8-6--4-4-6-4--4-4-6-4--3-3-4-3-1---------|
E---------------------------------------------------------------------------|

Part IV

“The Sad Mafioso...”

Starts at 8:22


(Quietly in background you can hear voice singing Da Da Da Da)


Starts at 8:22
Repeat 12x

E---------------------------------------------------------------------------|
B---------------------------------------------------------------------------|
G---------------------------------------------------------------------------|
D---------------------------------------------------------------------------|
A------4-------8------------------------------------------------------------|
E----2-------6--------------------------------------------------------------|


Starts at 8:51

Repeat 2x

E----13-13-11-11---11-11-9-9---9-9-8-8---8-8-6-6---6-6-8-8---8-8-9-9--------|
B---------------------------------------------------------------------------|
G---------------------------------------------------------------------------|
D---------------------------------------------------------------------------|
A---------------------------------------------------------------------------|
E---------------------------------------------------------------------------|

E----9-9-11-11---11-11-13-13------------------------------------------------|
B---------------------------------------------------------------------------|
G---------------------------------------------------------------------------|
D---------------------------------------------------------------------------|
A---------------------------------------------------------------------------|
E---------------------------------------------------------------------------|

Orchestra (or use guitar with distortion)
Starts at  9:19

*note its a power chord, text editor made it seem split up*

Repeat 13x then it slowly starts decreasing in volume

E-----------------------------------------------------------------------------|
B-----------------------------------------------------------------------------|
G-----------------------------------------------------------------------------|
D---8--------------4----------------------------------------------------------|
A---8--------------4----------------------------------------------------------|
E---6--------------2----------------------------------------------------------|

Starts at 9:49

E----13--13\11--11\9--9\8--8\6-------6h8-6--6h8-6-----------------------------|
B-------------------------------------------------6--7------------------------|
G-------------------------------------------------------6----5^---------------|
D----------------------------------------------------------------8------------|
A-----------------------------------------------------------------------------|
E-----------------------------------------------------------------------------|

Part V

“The Sad Mafioso...”

Starts at 10:03


Strings/Orchestra
10:15 - end of song

*note tempo of song and notes below increase at 11:05*
E---------------------------------------------------------------------------|
B---------------------------------------------------------------------------|
G---------------------------------------------------------------------------|
D---------------------------------------------------------------------------|
A---8-8-9-8--8-8-9-8--6-6-8-6--6-6-8-6--4-4-6-4--4-4-6-4--3-3-4-3-1---------|
E---------------------------------------------------------------------------|

Guitar
Starts at 10:28

Repeat 3x

E----------------------------------------------------------------------------|
B---11-13-13-11-11-13-13-11-11-13-13-11-11-9-9-------------------------------|
G----------------------------------------------------------------------------|
D----------------------------------------------------------------------------|
A----------------------------------------------------------------------------|
E----------------------------------------------------------------------------|

Bunch of bends
Starts at 10:47

E----------------------------------------------------------------------------|
B---11^^--11^^^---11^^^^^^^-(11)---------------------------------------------|
G----------------------------------------------------------------------------|
D----------------------------------------------------------------------------|
A----------------------------------------------------------------------------|
E----------------------------------------------------------------------------|

Part VI
"Drugs In Tokyo..."
Starts at 11:28

Repeat V

“The Sad Mafioso...”

Orchestra/Guitar with distortion

Palm mute the section while hitting the notes as fast as you can.

===============================================================
 /  = slide up
 \  = slide down
 h  = hammer-on
 p  = pull-off
 ^  = bend
===============================================================
            
Submit corrections


        East Hastings lessons Hard to play? Try these video lessons and learn fast East Hastings lessons
        
↑ Back to top | Tablatures and chords for acoustic guitar and electric guitar, ukulele, drums are parodies/interpretations of the original songs. You may use it for private study, scholarship, research or language learning purposes only