» » »

Gnarkill - I Got Erection Tabs

Artists:  A B C D E F G H I J K L M N O P Q R S T U V W X Y Z # 

I Got Erection Tabs

(ver. 1) Click to play this song!
Gnarkill
 Rating:
3.5/5 (8 votes)

 I Got Erection lessons Tabs too difficult? Try these video lessons and learn fast
 
                Gnarkill - I Got An Erection!
Tuning:Standard

This Song Kicks Ass
I Hope You Enjoy This Tab


Main Riff
|---------------------------------|
|---------------------------------|
|---------------------------------|
|---------------------------------|
|-2-2-2-2-7-7-7-7-3-3-3-3-3-3-3-3-|
|-0-0-0-0-5-5-5-5-1-1-1-1-1-1-1-1-|



|---------------------------------|
|---------------------------------|
|---------------------------------|
|---------------------------------|
|-5-5-5-5-3-5-3~~-2-2-2-2-2-2-2-2-|
|-3-3-3-3-1-3-1~~-0-0-0-0-0-0-0-0-|



|---------------------------------|
|---------------------------------|
|---------------------------------|
|---------------------------------|
|-2-2-2-2-7-7-7-7-3-3-3-3-3-3-3-3-|
|-0-0-0-0-5-5-5-5-1-1-1-1-1-1-1-1-|



|---------------------------------|
|---------------------------------|
|---------------------------------|
|---------------------------------|
|-5-5-5-5-3-5-3~~-2-2-2-2-2-2-2-2-|
|-3-3-3-3-1-3-1~~-0-0-0-0-0-0-0-0-|


Verse

The Chords Used Are

  E    F   G(Bar chord)
|-0-||-1-||-3-|
|-0-||-1-||-3-|
|-1-||-2-||-4-|
|-2-||-3-||-5-|
|-2-||-3-||-5-|
|-0-||-1-||-3-|


The order they are used in are
Ex2,Fx2,G,F,Ex2

and the chorus is the same as the main riff
            
Submit corrections


        I Got Erection lessons Hard to play? Try these video lessons and learn fast I Got Erection lessons
        
↑ Back to top | Tablatures and chords for acoustic guitar and electric guitar, ukulele, drums are parodies/interpretations of the original songs. You may use it for private study, scholarship, research or language learning purposes only