» » »

Girlpool - Your Heart Tabs

Artists:  A B C D E F G H I J K L M N O P Q R S T U V W X Y Z # 

Your Heart Tabs

(ver. 1) Click to play this song!
Girlpool
 Rating:
4.3/5 (12 votes)

 Your Heart lessons Tabs too difficult? Try these video lessons and learn fast
 
                [Intro]

e|----------|--------------------------------------|---------------------------------|
B|----------|--------------------------------------|---------------------------------|
G|---------0|----------------------------0-------2-|-----------2-0-------------------|
D|-0-2------|-----2----2-----2----2------0-2-------|-0-------------0-------0-2-------|
A|-----0-3--|-3-3-3--3-3-3-3-3--3-3--3-3-3---0-3---|---3-3-3-3-------3-3-3-----0-3-0-|
E|----------|-1-1-1--1-1-1-1-1--1-1--1-1-1---------|---1-1-1---------1-1-1-----------|
              . .    .   . .    .    . .               . . .         . . .

e|-----------------------------------|------------------------|
B|---0-------------------------------|------------------0-----|
G|-----5-------5-4---------------4p0-|------------------0-----|
D|-4-----4---4------4---4---4--------|-----2----2-------2-----|
A|-5-------5----------5---5---5------|-3-3-3--3-3-3-3-x-3-----|
E|-----------------------------------|-1-1-1--1-1-1-1-x-1-----|
                                       . .    .   . .  

[Verse 1]

e|-----------------------|-----------------------------------------------|-----------------------|
B|-----------------------|---0---------------------------------------0---|-----------------------|
G|-----------------------|-----5-------5-4-------------4p0-----------0---|-----------------------|
D|------------------(x4)-|-4-----4---4-----4---4---4-----------------2---|------------------(x4)-|
A|-3-3-3-3-3-3-3-3-------|-5-------5---------5---5---5-----3-3-3-3-x-3---|-3-3-3-3-3-3-3-3-------|
E|-1-1-1-1-1-1-1-1-------|---------------------------------1-1-1-1-x-1---|-1-1-1-1-1-1-1-1-------|
   . . . . . . . .                                         . . . .         . . . . . . . . 

[Chorus]

e|---0------3-3---3/5-----5/-7-----|---------------------------------|
B|-----3----0-0---0---0--------0---|-------------0-------------------| 
G|-2-----2--0-0-0-------0--------0-|-------------0-------------------| (2x)
D|---------------------------------|-------------2-------------------|
A|---------------------------------|-3-3-3-3-3-x-3----3-3-3-3-3-3-3--|
E|---------------------------------|-1-1-1-1-1-x-1----1-1-1-1-1-1-1--|
                                     . . . . .        . . . . . . .

[Verse 2]

e|-----------------------|----------------------------------|
B|-----------------------|---0------------------------------|
G|-----------------------|-----5-------5-4-----------------0|
D|------------------(x4)-|-4-----4---4-----4---4---0-2------|
A|-3-3-3-3-3-3-3-3-------|-5-------5---------5---5-----0-3--|
E|-1-1-1-1-1-1-1-1-------|----------------------------------|
   . . . . . . . . 

e|--------------------------------------|---------------------------------|-----------------------0--------|
B|--------------------------------------|---------------------------------|---0---------------------3-1-0--|
G|(0)-------------------------0-------2-|-----------2-0-------------------|-----5-------5-4----------------|
D|-----2----2-----2----2------0-2-------|-0-------------0-------0-2-------|-4-----4---4-----4---4----------|
A|-3-3-3--3-3-3-3-3--3-3--3-3-3---0-3---|---3-3-3-3-------3-3-3-----0-3-0-|-5-------5---------5------------|
E|-1-1-1--1-1-1-1-1--1-1--1-1-1---------|---1-1-1---------1-1-1-----------|--------------------------------|
   . .    .   . .    .    . .               . . .         . . .

[Chorus]

e|---0------3-3---3/5-----5/-7------|---------------------------------|
B|-----3----0-0---0---0--------0----|-------------0-------------------| 
G|-2-----2--0-0-0-------0--------0--|-------------0-------------------| (4x)
D|----------------------------------|-------------2-------------------|
A|----------------------------------|-3-3-3-3-3-x-3----3-3-3-3-3-3-3--|
E|----------------------------------|-1-1-1-1-1-x-1----1-1-1-1-1-1-1--|
                                      . . . . .        . . . . . . . 

            
Submit corrections


        Your Heart lessons Hard to play? Try these video lessons and learn fast Your Heart lessons
        
↑ Back to top | Tablatures and chords for acoustic guitar and electric guitar, ukulele, drums are parodies/interpretations of the original songs. You may use it for private study, scholarship, research or language learning purposes only