» » »

Girlpool - Tabs

Artists:  A B C D E F G H I J K L M N O P Q R S T U V W X Y Z # 

Tabs

(ver. 1) Click to play this song!
Girlpool
 Rating:
4.2/5 (30 votes)

  lessons Tabs too difficult? Try these video lessons and learn fast
 
                [Intro]
e|----------------------------------------------------------|
B|----------------------------------------------------------|
G|--------------------------0-------------------------------|
D|-------2---0--0-------2-------0---------------------------|
A|-0-2-3---3--3---0-2-3---3---3-----------------------------|
E|----------------------------------------------------------|  (Repeat twice).

[Verse 1]
"Stepped into my shoes today..."
e|----------------------------------------------------------|
B|----------------------------------------------------------|
G|--------------------------0-------------------------------|
D|-------2---0--0-------2-------0---------------------------|
A|-0-2-3---3--3---0-2-3---3---3-----------------------------|
E|----------------------------------------------------------| (Repeat six times during verse).

[Chorus]
           Am            G
The room’s beige, it’s a mess
    Am               Em
You dream to be sleepless

(Repeat twice).

e|--------------------|
B|--------------------|
G|---4-5-7-5-4---4----|
D|-5-----------5------|
A|--------------------|
E|--------------------| (Repeat 3 times)

e|---------7+---------|
B|-----------7+---7+--|
G|---4-5-7-----7+-----|
D|-5------------------|
A|--------------------|
E|--------------------|

[Verse 2]

"I live in a gallery that no one's ever seen..."

e|-------------------------------------------------------|
B|-------------------------------------------------------|
G|-----------------------0-------------------------------|
D|----2---0--0-------2-------0---------------------------|
A|--3---3--3---0-2-3---3---3---0-2-----------------------|
E|-------------------------------------------------------| (Repeat two times during verse).

e|--------------------|
B|--------------------|
G|---4-5-7-5-4---4----|
D|-5-----------5------|
A|--------------------|
E|--------------------| (Repeat 3 times)

e|---------7+---------|
B|-----------7+---7+--|
G|---4-5-7-----7+-----|
D|-5------------------|
A|--------------------|
E|--------------------|

[Chorus]

           Am            G
The room’s beige, it’s a mess
    Am               Em
You dream to be sleepless

(Repeat 3 times).
            
Submit corrections


         lessons Hard to play? Try these video lessons and learn fast  lessons
        
↑ Back to top | Tablatures and chords for acoustic guitar and electric guitar, ukulele, drums are parodies/interpretations of the original songs. You may use it for private study, scholarship, research or language learning purposes only