» » »

Girlpool - Ideal World Tabs

Artists:  A B C D E F G H I J K L M N O P Q R S T U V W X Y Z # 

Ideal World Tabs

(ver. 1) Click to play this song!
Girlpool
 Rating:
2.8/5 (20 votes)

 Ideal World  lessons Tabs too difficult? Try these video lessons and learn fast
 
                INTRO/VERSE
e|---------------------------------------------------------------------------|
B|---------------------------------------------------------------------------|
G|---------------------------------------------------------------------------|
D|---------------------------------------------------------------------------|
A|-5-5-5-5---------5-5-5-5---------5-5-5-5---------5-5-5-5-------5h7---------|
E|---------7-7-7-7---------7-7-7-7---------7-7-7-7---------7-7-7-------------|

CHORUSY BIT
e|---------------------------------------------------------------------------|
B|-0-------------------------------------------------------------------------|
G|-0-------------------------------------------------------------------------|
D|---------------------------------------------------------------------------|
A|----------------------------------5-5-5-5---------5-5-5-5------------------|
E|--2-2-2-2-2-2-2-2-5-5-5-5-5-5-5-5---------7-7-7-7---------7-7-7-7----------|

Third time
e|--------------------------------------------------------------------------------------------------|
B|-0---------------------------------------------------------------0--------------------------------|
G|-0---------------------------------------------------------------0--------------------------------|
D|--------------------------------------------------------------------------------------------------|
A|----------------------------------5-5-5-5-3-3-3-3-2-2-2-2-0-0-0-0---------------------------------|
E|--2-2-2-2-2-2-2-2-5-5-5-5-5-5-5-5---------------------------------3-3-3-3-3-3-3-3-5-5-5-5-5-5-5-5-|

POST CHORUS (Guitar 1)
e|---------------------------------------------------------------------------|
B|---------------------------------------------------------------------------|
G|---------------------------------------------------------------------------|
D|-4-4-4-4-------------------------4-4-4-4-----------------------------------|
A|---------5-5-5-5-2-2-2-2-5-5-5-5---------5-5-5-5-2-2-2-2-5-5-5-5-----------|
E|---------------------------------------------------------------------------|

POST CHORUS (Guitar 2)
e|---------------------------------------------------------------------------|
B|-7-----7-----7------------7-----7-----7------------------------------------|
G|---7-----------7------------7-----------7----------------------------------|
D|---------9---------9--------------9---------9------------------------------|
A|---------------------------------------------------------------------------|
E|---------------------------------------------------------------------------|

Then do the verse pattern again, then the end of the third bit of the 'chorus'

Finally mash the 2nd guitar wildly over the verse pattern until fin.


##############
#   CHORDS   #
##############
If you want to play a nice acoustic version I'd do something like this.

D  G/B  D  G/B  D  G/B  D  G/B

D             G/B            D       G/B
I thought I'd found myself today

D        G/B       D 
No one's noticed       things are okay


D  G/B  D  G/B  D  G/B  D  G/B

D        G/B             D       G/B
I took a walk down the street

D     G/B       D 
Found nothing        beneath my feet

D  G/B  D  G/B
F#m              A                        D G/B D G/B
I feel safest in knowing that I am true

F#m                 A                     D G/B D G/B
When I look in your eyes the idea of you

F#m         A
Put me on a food stamp and a hallmark card
D      C       Bm        A     G       A
Tranquilize me with your ideal world

D  G/B  D  G/B  D  G/B  D  G/B

D     G/B              D       G/B
I was taught what to believe
D     G/B              D       G/B
Now I'm only certain that no one is free
D      C       Bm        A     G       A
Tranquilize me with your ideal world


D  G/B  D  G/B  D  G/B  D  G/B            
Submit corrections


        Ideal World  lessons Hard to play? Try these video lessons and learn fast Ideal World  lessons
        
↑ Back to top | Tablatures and chords for acoustic guitar and electric guitar, ukulele, drums are parodies/interpretations of the original songs. You may use it for private study, scholarship, research or language learning purposes only